Song name
# A B C D E F G H I J K L M N O P Q R S T U V W X Y Z

Kings Of Convenience - Know How tab

Kings Of Convenience - Know How

Added the bridge and made some improvements for main part.
Both guitars have a capo on the 6th fret.

X - mute strings

First part of the song goes like this:

Guitar 1:

      X      X      X       X         X       X       X       X  
e|-----------------------------------------------------------------|
B|-------------0------0-------------------------0-------0-------0--|
G|---------0---0------0---0---0-------------6---6-------6---6---0--|
D|---------5---5------5---5---5-------------7---7-------7---7---7--|
A|-------2--------2-----2---------------7-----------7-----7--------|
E|-0-------------------------------5-------------------------------|
 
       X       X       X       X         X     X     X   X
e|-----------------------------------------------------0---0------|
B|---------------0-------0-------------------0---0-----0---0---0--|
G|-----------2---2-------2---2---0-----------0---0-----4---2p0----|
D|-----------2---2-------2---2---2---------4-------4--------------|
A|--------0----------0-----0-----------5---------5----------------|
E|-2--------------------------------------------------------------|

Guitar 2:

e|--------7-|       e|-------5-----3--3--0-|
B|-----0----|       B|----0-----0----------|
G|--7-------|       G|-7-------------------|
D|----------|  x3   D|---------------------|
A|----------|       A|---------------------|
E|----------|       E|---------------------|

e|--------2-|       e|-------0-----0--0-|
B|-----0----|       B|----0-----3-------|
G|--6-------|       G|-6----------------| 
D|----------|  x3   D|------------------|
A|----------|       A|------------------| 
E|----------|       E|------------------|  

e|--------5-|       e|-------3--2--2--0-|
B|-----0----|       B|----0-------------|
G|--6-------|       G|-6----------------|
D|----------|  x3   D|------------------|
A|----------|       A|------------------|
E|----------|       E|------------------|


e|--------2-|       e|-------0--|
B|-----0----|       B|----0-----|
G|--4-------|       G|-4--------|
D|----------|  x3   D|----------|
A|----------|       A|----------|
E|----------|       E|----------|

Lyrics:

Riding on this know-how
Never been here before
Peculiarly entrusted
Possibly that's all
Is history recorded?
Does someone have a tape?
Surely, I'm no pioneer
Constellations stay the same

Guitar 2: 2x

Just a little bit of danger
When intriguingly
Our little secret
Trusts that you trust me
'Cause no one will ever know
That this was happening
So tell me why you listen
When nobody's talking

Guitar 2: 2x

Bridge:

e|----------------0-----------------------------------0---------------|
B|----------3---------3-------3-------------2-----2-----------2-------|
G|-----0-0----0-0-------0-0---------------------4---------4-------4-0-|
D|------------------------------0---------2---2-----2-------2---2-----|
A|---2----------------------2-----------0-----------------------------|
E|-0------------------------------------------------------------------|


e|---------------0----------------------------------------|
B|---------0---------0---------------------------0--------|
G|-----2-----2-----------2---0---0-----------0-----0---0--|
D|-------2-----2-------2-------2-----------4---4-----4----|
A|---0---------------------0-------------5----------------|
E|-2------------------------------------------------------| Piano starts


What is there to know?
All this is what it is
You and me alone
Sheer simplicity

What is there to know?
All this is what it is
You and me alone
Sheer simplicity

What is there to know?
All this is what it is
You and me alone
Sheer simplicity
Tap to rate this tab
# A B C D E F G H I J K L M N O P Q R S T U V W X Y Z