Song name
# A B C D E F G H I J K L M N O P Q R S T U V W X Y Z

Kings Of Convenience - Me In You tab

         Me in You - Kings of Convenience                                     

Lead Guitar (Erlend) (Capo 10)
                          Steel Guitar                                
      Intro                                 
E||----|-------|-------|------0-----0---------0-----0-----|
B||----|-------|-------|----1-----1-----1---1-----1-----1-|
G||----|-------|-------|--2-----2-----2---0-----0-----0---|
D||----|-------|-------|----------------------------------|
A||----|-------|-------|----------------------------------|
E||----|-------|-------|----------------------------------|


   THEME
-----------------------------------|----------------------------------|
-------1-----1---------1-----1-----|------0-----0---------0-----0-----|
-----0-----0-----0---0-----0-----0-|----0-----0-----0---0-----0-----0-|
--3~-----3-----3---2-----2-----0-L-|------------------------0-----2---|
-----------------------------------|--2-----2-----2---3---------------|
-----------------------------------|----------------------------------|


----------------------------------|------0-----0---------0-----0-----|
------1-----1---------1-----1-----|----1-----1-----1---1-----1-----1-|
----0-----0-----0---0-----0-----0-|--2-----2-----2---0-----0-----0---|
--3-----3-----3---2-----2-----2---|----------------------------------|
----------------------------------|----------------------------------|
----------------------------------|----------------------------------|

   
-----------------------------------|----------------------------------|
-------1-----1---------1-----1-----|------0-----0---------0-----0-----|
-----0-----0-----0---0-----0-----0-|----0-----0-----0---0-----0-----0-|
---3-----3-----3---2-----2-----0---|------------------------0-----2---|
-----------------------------------|--2-----2-----2---3---------------|
-----------------------------------|----------------------------------|


----------------------------------|------------------------------------|
------1-----1---------1-----1-----|------1-----1---------1-----1-------|
----0-----0-----0---0-----0-----0-|----0-----0-----0---0-----0-----(0)-|
--3-----3-----3---2-----2-----2-L-|------------------------------2-----|
----------------------------------|--0-----0-----0-L-------------------|
----------------------------------|------------------3-----3-----------|

Verse (Crossroads)
-----------------------------------|----------------------------------|
-------1-----1---------1-----1-----|------0-----0---------0-----0-----|
-----0-----0-----0---0-----0-----0-|----0-----0-----0---0-----0-----0-|
--3~-----3-----3---2-----2-----0---|------------------------0-----2---|
-----------------------------------|--2-----2-----2---3---------------|
-----------------------------------|----------------------------------|


----------------------------------|------0-----0---------0-----0-----|
------1-----1---------1-----1---1-|----1-----1-----1---1-----1-----1-|
----0-----0-----0---0-----0---0---|--2-----2-----2---0-----0-----0---|
--3-----3-----3---2-----2-L-L-----|----------------------------------|
----------------------------------|----------------------------------|
----------------------------------|----------------------------------|


-----------------------------------|----------------------------------|
-------1-----1---------1-----1-----|------0-----0---------0-----0-----|
-----0-----0-----0---0-----0-----0-|----0-----0-----0---0-----0-----0-|
--3~-----3-----3---2-----2-----0-L-|------------------------0-----2---|
-----------------------------------|--2-----2-----2---3-L-L-----------|
-----------------------------------|----------------------------------|

   
---------------------------------|---------------------------------|
-----1-----1---------1-----1-----|------1-----1---------1-----1----|
---------0-----0---0-----0-----0-|----0-----0-----0---0-----0------|
--3----3-----3---2-----2-----2-L-|------------------------------2--|
---------------------------------|--0-----0-----0-L----------------|
---------------------------------|------------------3-----3--------|

 CHORUS
-----------------------------------|----------------------------------|
-------1-----1---------1-----1-----|------0-----0---------0-----0-----|
-----0-----0-----0---0-----0-----0-|----0-----0-----0---0-----0-----0-|
--3~-----3-----3---2-----2-----0---|------------------------0-----2---|
-----------------------------------|--2-----2-----2---3---------------|
-----------------------------------|----------------------------------|


----------------------------------|------0-----0---------0-----0-----|
------1-----1---------1-----1-----|----1-----1-----1---1-----1-----1-|
----0-----0-----0---0-----0-----0-|--2-----2-----2---0-----0-----0---|
--3-----3-----3---2-----2-----2---|----------------------------------|
----------------------------------|----------------------------------|
----------------------------------|----------------------------------|


-----------------------------------|----------------------------------|
-------1-----1---------1-----1-----|------0-----0---------0-----0-----|
-----0-----0-----0---0-----0-----0-|----0-----0-----0---0-----0-----0-|
--3~-----3-----3---2-----2-----0---|------------------------0-----2---|
-----------------------------------|--2-----2-----2---3---------------|
-----------------------------------|----------------------------------|

 
---------------------------------|---------------------------------|
-----1-----1---------1-----1-----|------1-----1---------1-----1----|
---------0-----0---0-----0-----0-|----0-----0-----0---0-----0------|
--3----3-----3---2-----2-----2---|------------------------------0--|
---------------------------------|--0-----0-----0------------------|
---------------------------------|------------------3-----3--------|

VERSE 2 (Problems)
-----------------------------------|----------------------------------|
-------1-----1---------1-----1-----|------0-----0---------0-----0-----|
-----0-----0-----0---0-----0-----0-|----0-----0-----0---0-----0-----0-|
--3~-----3-----3---2-----2-----0---|------------------------0-----2---|
-----------------------------------|--2-----2-----2---3---------------|
-----------------------------------|----------------------------------|


----------------------------------|------0-----0---------0-----0-----|
------1-----1---------1-----1---1-|----1-----1-----1---1-----1-----1-|
----0-----0-----0---0-----0---0---|--2-----2-----2---0-----0-----0---|
--3-----3-----3---2-----2---------|----------------------------------|
----------------------------------|----------------------------------|
----------------------------------|----------------------------------|

 
-----------------------------------|----------------------------------|
-------1-----1---------1-----1-----|------0-----0---------0-----0-----|
-----0-----0-----0---0-----0-----0-|----0-----0-----0---0-----0-----0-|
--3~-----3-----3---2-----2-----0---|------------------------0-----2---|
-----------------------------------|--2-----2-----2---3---------------|
-----------------------------------|----------------------------------|

 
---------------------------------|---------------------------------|
-----1-----1---------1-----1-----|------1-----1---------1-----1----|
---------0-----0---0-----0-----0-|----0-----0-----0---0-----0------|
--3----3-----3---2-----2-----2-L-|------------------------------2--|
---------------------------------|--0-----0-----0------------------|
---------------------------------|------------------3-----3--------|

 CHORUS
-----------------------------------|----------------------------------|
-------1-----1---------1-----1-----|------0-----0---------0-----0-----|
-----0-----0-----0---0-----0-----0-|----0-----0-----0---0-----0-----0-|
--3~-----3-----3---2-----2-----0---|------------------------0-----2---|
-----------------------------------|--2-----2-----2---3---------------|
-----------------------------------|----------------------------------|


----------------------------------|------0-----0---------0-----0-----|
------1-----1---------1-----1-----|----1-----1-----1---1-----1-----1-|
----0-----0-----0---0-----0-----0-|--2-----2-----2---0-----0-----0---|
--3-----3-----3---2-----2-----2---|----------------------------------|
----------------------------------|----------------------------------|
----------------------------------|----------------------------------|

 
-----------------------------------|----------------------------------|
-------1-----1---------1-----1-----|------0-----0---------0-----0-----|
-----0-----0-----0---0-----0-----0-|----0-----0-----0---0-----0-----0-|
--3~-----3-----3---2-----2-----0---|------------------------0-----2---|
-----------------------------------|--2-----2-----2---3---------------|
-----------------------------------|----------------------------------|

   
----------------------------------|-------------------------------|
------1-----1---------1-----1-----|------0-----0-----0-----0------|
----0-----0-----0---0-----0-----0-|----0-----0-----0-----0--------|
--3-----3-----3---2-----2-----0-L-|-------------------------------|
----------------------------------|--2-----2-----2-----2----------|
----------------------------------|-------------------------------|

 BRIDGE (And I'm watching you now...)
----------------------------------|----------------------------------|
----------------------------------|----------------------------------|
----------------------------------|----------------------------------|
----2---2---2---2---2---2---2---2-|----0---0---0---0---0---0---0---0-|
--3---3---3---3---3---3---3---3---|--2---2---2---2---2---2---2---2---|
----------------------------------|----------------------------------|


----------------------------------|----------------------------------|
----------------------------------|----------------------------------|
----------------------------------|----------------------------------|
----0---0---0---0---0---0---0---0-|----2---2---2---2---2---2---2---2-|
--2---2---2---2---2---2---2---2---|--3---3---3---3---3---3---3---3---|
----------------------------------|----------------------------------|

ANd I'm watching you now
----------------------------------|----------------------------------|
----------------------------------|----------------------------------|
----------------------------------|----------------------------------|
----2---2---2---2---2---2---2---2-|----0---0---0---0---0---0---0---0-|
--3---3---3---3---3---3---3---3---|--2---2---2---2---2---2---2---2---|
----------------------------------|----------------------------------|


----------------------------------|----------------------------------|
----------------------------------|------------------------0---------|
----------------------------------|--------------------0-------0-----|
----0---0---0---0---0---0---0---0-|----2---2---2---2---------------2-|
--2---2---2---2---2---2---2---2---|--3---3---3---3---3---3---3---3---|
----------------------------------|----------------------------------|

 And I'm watching you now
----------------------------------|----------------------------------|
----------------------------------|----------------------------------|
----------------------------------|----------------------------------|
----2---2---2---2---2---2---2---2-|----0---0---0---0---0---0---0---0-|
--3---3---3---3---3---3---3---3---|--2---2---2---2---2---2---2---2---|
----------------------------------|----------------------------------|

               
----------------------------------|-----------|
----------------------------------|--1--------|
----------------------------------|--0--------|
----0---0---0---0---0---0---0---0-|-----------|
--2---2---2---2---2---2---2---2---|--0--------|
----------------------------------|-----------|

                                    Outro
------0-----0---------0-----0-----|-------------0---------------0-----|
----1-----1-----1---1-----1-----1-|-------1---------------1-----------|
--2-----2-----2---0-----0-----0---|-----0-----0-----0---0-----0-----0-|
----------------------------------|--3~-----3-----3---2-----2-----0---|
----------------------------------|-----------------------------------|
----------------------------------|-----------------------------------|


----------------------------------|------------0---------------0-----|
------0-----0---------0-----0-----|------1---------------1---------1-|
----0-----0-----0---0-----0-----0-|----0-----0-----0---0-----0---0---|
------------------------0-----2---|--3-----3-----3---2-----2---------|
--2-----2-----2---3---------------|----------------------------------|
----------------------------------|----------------------------------|

 
------0-----0---------0-----0-----|-------------0---------------0-----|
----1-----1-----1---1-----1-----1-|-------1---------------1-----------|
--2-----2-----2---0-----0-----0---|-----0-----0-----0---0-----0-----0-|
----------------------------------|--3~-----3-----3---2-----2-----0---|
----------------------------------|-----------------------------------|
----------------------------------|-----------------------------------|

 
----------------------------------|------------0---------------0-----|
------0-----0---------0-----0-----|------1---------------1-----------|
----0-----0-----0---0-----0-----0-|----0-----0-----0---0-----0-----0-|
------------------------0-----2---|--3-----3-----3---2-----2-----2---|
--2-----2-----2---3---------------|----------------------------------|
----------------------------------|----------------------------------|

 
----------------------------------|-----------------------------------|
------1-----1---------0-----0-----|------0-----0---------0-----0------|
----0-----0-----0---0-----0-----0-|----0-----0-----0---0-----0--------|
----------------------------------|------------------0-----0-----0h2--|
--0-----0-----0-L-2-----2-----2---|--3-----3-----3--------------------|
----------------------------------|-----------------------------------|


  W                  
-------------------||
-------------------||
-------------------||
--L----------------||
-------------------||
-------------------||




Duration Legend
---------------
W - whole
H - half
Q - quarter
E - 8th
S - 16th
T - 32nd
X - 64th
. - note dotted
|-n-|  - n-tuplets


Tablature Legend
----------------
L - tied note
x - dead note
g - grace note
(n) - ghost note
> - accentuded note
NH - natural harmonic
AH - artificial harmonic
TH - tapped harmonic
SH - semi harmonic
PH - pitch harmonic
h - hammer on
p - pull off
b - bend
br - bendRelease
pb - preBend
pbr - preBendRelease
brb - bendReleaseBend
\n/ - tremolo bar dip
\n - tremolo bar dive
-/n - tremolo bar Release up
/n\ - tremolo bar inverted dip
/n - tremolo bar return
-\n - tremolo bar Release down
S - shift slide
s - legato slide
/ -  slide into from below or out of upwards
\ -  slide into from above or out of downwards
~ - vibrato
W - wide vibrato
tr - trill
TP - tremolo picking
T - tapping
S - slap
P - pop
< - fade in
^ - brush up
v - brush down
Tap to rate this tab
# A B C D E F G H I J K L M N O P Q R S T U V W X Y Z