Song name
# A B C D E F G H I J K L M N O P Q R S T U V W X Y Z

Kings Of Convenience - Homesick tab

E--9-------9------8-------8-----6-----6----4-----4----1-----1----4-----4->
B--------9--------------9-----------6----------4----------2----------4--->
G-----10-------------10-----------6----------5----------1----------5----->
D--11---------11--10--------10--8-------8--6-------6--3-------3--6------6>
A------------------------------------------------------------------------>
E------------------------------------------------------------------------>

E--1-----1----1-----1--|
B------2----------2----|
G----1----------1------|
D--3-------3--3-------3|
A----------------------|
E----------------------|
2nd Time do this...

E--9-------9-----8-------8-----4-----4----6-----6----2-----2----4-----4-->
B--------9-------------9-----------4----------6----------2----------4---->
G-----10------------10-----------5----------6----------3----------5------>
D--11--------11--10--------10--6-------6--8-------8--4-------4--6-------6>
A------------------------------------------------------------------------>
E------------------------------------------------------------------------>

E--1-----1----1-----1-|
B------2----------2---|
G----1----------1-----|
D--3-------3--3------3|
A---------------------|
E---------------------|

Repeat this twice and there you have it! This is my first tab so if you like it please
rate it what you think it deserves, also this song sounds better if when you slide from
position to position keeping your ring finger planted. There are two parts to this song, 
this is the one erlend plays in the beginning and end
Tap to rate this tab
# A B C D E F G H I J K L M N O P Q R S T U V W X Y Z