Song name
# A B C D E F G H I J K L M N O P Q R S T U V W X Y Z

Kings Of Convenience - Cayman Islands tab

This is the fast lead part that erlend plays in the beginning and end
                             
                          Capo on 1
Tabs not relative to capo. 1 is open

e------9-----9---------9----9---------9---9--------9---9-------1--1>
B----11----11----11--11---11----11--11--11---11--11--11---11--9--9->
G--------10-------------10-------------8------------8-----------8-->
D--11----------11--11---------11--11-------11--11-------11--10----->
A------------------------------------------------------------------>
E------------------------------------------------------------------>


e--------1-----1--------1-----1--------1-----1----|
B----9--9----9-----9---9----9-----9--9-----9-----9|
G----------8--------------6--------------6--------|    x2
D--10-10---------10--8----------8--8-----------8--|
A-------------------------------------------------|
E-------------------------------------------------|



Hope you guys enjoy it, this took me hours to figure out.
Tap to rate this tab
# A B C D E F G H I J K L M N O P Q R S T U V W X Y Z