Song name
# A B C D E F G H I J K L M N O P Q R S T U V W X Y Z

Kings Of Convenience - Mrs Cold tab

-------------------------------------------------------------------------------
                             Mrs Cold - Kings of Convenience
-------------------------------------------------------------------------------
Tabbed by: ChillinDylan & GregoryCarniel

***Thanks to ChillinDylan who tabbed the whole song, I just introduced the Fills 
and made some changes***

You can actually play this song with a friend, only two guitars, and vocal 
harmonies that sound damn sexy.

Tuning:Standard

Guitar 1
                                              Main Riff
e|------------------------------------------|------------------------------|
B|-------x-----------x--------x-----------x-|------6--6------6-----4-4----4|
G|-------x-----------x--------x-----------x-|------7--7------7-----5-5----5|x4
D|-----x---x-------x--------x---x-------x---|------------------------------|x4
A|-----------x-(6)------(6)-------x-(6)-----|-(6)-6------6-6---------------|
E|--(6)-------------------(6)---------------|------------------6-4----4-4--|

Main Riff for the whole song.

------------------------------------------------------------------------------------------------

Guitar 2 

Intro
e|------------------------------------------|--------------------------------|
B|-8888-8888-888-8888-9-11-11s13-13-11-9-11-|-----8888-8888-888--------------|
G|------------------------------------------|-x2----------------10101010-10--|
D|------------------------------------------|-x2-----------------------------|
A|------------------------------------------|--------------------------------|
E|------------------------------------------|--------------------------------|

e|---------------------------------------------------------------------------|
B|-----------------------8888-8888-888-8888-9-11-11s13-13-11-9-11-8----------|
G|-10s12-10-------10---------------------------------------------------------|
D|----------13-10------------------------------------------------------------|
A|---------------------------------------------------------------------------|
E|---------------------------------------------------------------------------|

Riff

e|---------------------------------------------------------------------------|
B|--P--M---------------------------------------------------------------------|
G|--A--U---------------------------------------------------------------------|
D|--L--T---1212121212-------12-12---------------------------------12h13p12---|
A|--M--E--------------13-13-------13-13--131313--11-1111--13-1313----------13|
E|---------------------------------------------------------------------------|

e|---------------------------------------------------------------------------|
B|---------------------------------------------------------------------------|
G|---------------------------------------------------------------------------|
D|--1212121212-------12-12---------------------------------17p15h17p15-------|
A|-------------13-13-------13-13--131313--11-1111--15-1515--------------17---|
E|---------------------------------------------------------------------------|

e|---------------------------------------------------------------------------|
B|---------------------------------------------------------------------------|
G|---------------------------------------------------------------------------|
D|--1212-------12-12--------------------------------12h13p12-----------------|
A|-------13-13-------13-13--131313--11-1111-13-1313-----------13-------------|
E|---------------------------------------------------------------------------|

e|---------------------------------------------------------------------------|
B|---------------------------------------------------------------------------|
G|---------------------------------------------------------------------------|
D|--1212121212-------12-12---------------------------------17p15h17p15-------|
A|-------------13-13-------13-13--131313--10-1010--15-1515--------------17-13|
E|---------------------------------------------------------------------------|

Fill 1 - During Chorus
Capo 1st Fret (***Relative to capo***)  
                                                        3x                       Strum
e|---------------------------------|----------------------|
B|-----0-------0-------0-------0---|-----0-------0----0---|
G|---2---2---2---2---2---2---2---2-|---6---6---6---6--4---|
D|-4------4--------5------5--------|-7------7---------5---|
A|---------------------------------|----------------------|
E|---------------------------------|----------------------|

Fill 2 - During Second Riff
e|-10---8---13\--10---8-------|
B|-11---9---15\--11---9-------|
G|----------------------------|
D|----------------------------|
A|----------------------------|
E|----------------------------|

Fill 3 - End of Last Verse
(Some random picking on the G# there)
    Gm     G#                  G
e|----------------|------------3---|
B|--3-3-3--4-4-4--|------------3---|
G|--3-3-3--5-5-5--|--x3--------4---|
D|----------------|--x3--------5---|
A|----------------|------------5---|
E|--3-3-3--4-4-4--|------------3---|


Banjo 1 - During Second Verse 
e|----------------------------|
B|---11---11----11---11-------|
G|-8----7----------7----8--7--|
D|-----------10---------------|
A|----------------------------|
E|----------------------------|

Banjo 2 - End of Second Chorus

(If you're not playing live, you can play this with Capo on 10th Fret,
 also, here at the end of each session there are some banjo licks I didn't tab, 
just improvise a bit)
                                          2x
e|----------------------------|-------------------------------|
B|-11h13----------------------|-13h15-11h13-------------------|
G|-------15-12h15-10h12-------|-------------13h15-12-12-------|
D|----------------------10-13-|-------------------------13-15-|
A|----------------------------|-------------------------------|
E|----------------------------|-------------------------------|


| /  slide up
| \  slide down
| h  hammer-on
| p  pull-off
| ~  vibrato
| +  harmonic
| x  Mute note


------------------------------------------------------------------------------------

PLACEMENT IN THE SONG 

------------------------------------------------------------------------------------

[Guitar 1] 
(Through the whole song with occasional small rhythm changes)

------------------------------------------------------------------------------------

[Guitar 2]
(You can play the whole song with a Capo on 1st for the Fill 1, and ignore it during the rest)

[Intro]

Hey baby, Mrs. Cold
Acting so tough
Didn't know you had it in you so be hurt at all
You waited too long
You should've hook me
before I put my raincoat on

[Fill 1]
Okay, I get it
Okay, I see
You were fronting because you knew you'd find yourself vulnerable around me
Okay, I get it
Okay, I see
You feel vulnerable around me

[Riff]

[Banjo 1]
Hey, baby, what's going on?
You lost control and you lost your tongue
You lost me, deaf in my ear
Nothing you can say is gonna change the way I feel

[Fill 1]
Okay, I get it
Okay, I see
You were fronting because you knew you'd find yourself vulnerable around me
Okay, I get it
Okay, I see

[Banjo 2]
I step too close to your boundaries
You wanted nobody around to see
You feel vulnerable around me

[Riff]+[Fill 2]

Hey baby
What is love?
It was just a game

[Fill 3]
We're both playing and we can't get enough of
We're both playing and we can't get enough of
We're both playing and we can't get enough of


------------------------------------------------------------------------
***Thanks to ChillinDylan who tabbed the whole song, I just introduced the Fills 
and made some changes***

Greg
Tap to rate this tab
# A B C D E F G H I J K L M N O P Q R S T U V W X Y Z