Song name
# A B C D E F G H I J K L M N O P Q R S T U V W X Y Z

Kings Of Convenience - Love Is No Big Truth tab

Just thought I'd add this in because the proper version wasn't on here. and this song in 
incredible...got from somewhere on the internetz.

Just Eirik's part.

Verse:

|---------------|----------------|---------------|----------------|
|----5-----5---4|--4-4-----4-4-4-|2---2-----2-2-2|--2-2-2---2-2-2-|
|----4-----4---4|--4-4-----4-4-4-|2---2-----2-2-2|--2-2-2---2-2-2-|
|----6-----6---4|--4-4-----4-4-4-|2---2-----2-2-2|--2-2-2---2-2-2-|
|4--------------|------6-6-------|------4-4------|------4-4-------|
|--------4-----4|----------------|2--------------|2---------------|

|---------------|----------------|---------------|----------------|
|----5-----5---4|--4-4-----4-4-4-|4---4-----4-4-4|--4-4-4---4-4-4-|
|----4-----4---4|--4-4-----4-4-4-|4---4-----4-4-4|--4-4-4---4-4-4-|
|----6-----6---4|--4-4-----4-4-4-|4---4-----4-4-4|--4-4-4---4-4-4-|
|4--------------|------6-6-------|--------6------|--------6-------|
|--------4-----4|----------------|4--------------|4---------------|

then chorus:

|----------------|----------------|---------------|----------------|
|----9-----9-9---|--9-9-----9---9-|----9-----9-9-5|--5-5-----5-5-5-|
|----9-----9-9---|--9-9-----9---9-|----8-----8-8-6|--6-6-----6-6-6-|
|----11---11-11--|-11-11---11--11-|----9-----9-9-6|--6-6-----6-6-6-|
|9-------------12|-----------9----|7--------------|------7-7-------|
|--------9-------|-------12-------|--------7-----5|----------------|
Tap to rate this tab
# A B C D E F G H I J K L M N O P Q R S T U V W X Y Z