Song name
# A B C D E F G H I J K L M N O P Q R S T U V W X Y Z

Kings Of Convenience - Girl From Back Then tab

-------------------------------------------------------------------------------
               The Girl from back then - Kings of Convenience
-------------------------------------------------------------------------------
Tabbed by: Boris the K.
Email: bokuris@yahoo.de

Tuning: Standard

I play it that way.
Enjoy!

E-----------------|-----------------|-----------------|-----2-----------||
B-----------------|----6-------6----|-----------------|-----2-----------||
G---3-------3-----|----6-------6----|-----4------4----|-----0-------3---||
D---4-------4-----|-----------------|-----4------4----|--1----------4---||
A--------2--------|--6-------9------|---------2-------|-----------------||
E-4---------------|-----------------|--0--------------|----------2------||
Tap to rate this tab
 
# A B C D E F G H I J K L M N O P Q R S T U V W X Y Z