Song name
# A B C D E F G H I J K L M N O P Q R S T U V W X Y Z

Kings Of Leon - Danceing With Fatima tab

lyrics 
            enjoy the fatima dance off
ooooooo my baby's good to my she sold me to billy's pan shop for 50p 


sanjeev  in the desert is it is it wicked im loving loving loving  it im loving it like sanjeev. 

   SOLO

Guitar 1

"be there laughing"

e|-----------------------------------------------------------------------------|
B|-----------------------------------------------------------------------------|
G|--------/12~~-11~~------------------/12~~-11~~------------------/12~~-11~~---|
D|--------------------/99-7-7h9~----7------------/99-7-7h9~----7---------------|
A|-----------------------------------------------------------------------------|
E|-----------------------------------------------------------------------------|

e|-----------------------------------------------------------------------------|
B|-----------------------------------1515------1212----------------15----------|
G|--------/7-9-7-----/12~~-11~~-1212------1414------1414-121214b16--16r14-12--|
D|-/99-7-9-------9-7-----------------------------------------------------------|
A|-----------------------------------------------------------------------------|
E|-----------------------------------------------------------------------------|

e|------------------------------------------------------------------------------14b15r14---|
B|------15----15-------15----15----15-----15----15----15----15----15---15----1515b16r15---|
G|-14b1614b1614b14b1614b1614b16--14b16-14b16-14b16-14b16-14b16-------16---------------|
D|-----------------------------------------------------------------------------------------|
A|-----------------------------------------------------------------------------------------|
E|-----------------------------------------------------------------------------------------|
	        (^^ Note "double-bend" here - listen to the track)

e|----------------------------------------------------------------------------12--12~~-----|
B|--------15--------------------15----15-------15----15----15------15-----15------15b17~~--|
G|-----12---14b16--16r14-12-14b16-14b16-14b14b16-14b16-14b16---14b16-14b16-----------------|
D|-/14-------------------------------------------------------------------------------------|
A|-----------------------------------------------------------------------------------------|
E|-----------------------------------------------------------------------------------------|
					(^^ "double bend")
    tabbed by the almighty raven from Texas sponsored by wow  
Tap to rate this tab
# A B C D E F G H I J K L M N O P Q R S T U V W X Y Z