Guitaretab - guitar tabs
Song name
# A B C D E F G H I J K L M N O P Q R S T U V W X Y Z

Kings Of Leon - My Third House tab

Artist: Kings of Leon
Song: My Third House
Album: Because of the Times (B-side)

Intro

Rythym randomly strums this:
e-----9------|
B----10------|
G----11------|
D----11------|
A------------|
E------------|

This is played after the rythym intro:
e-----------------------------------|
B-----------------------------------|
G--6-9-6-8-6-9-6-8--6-4-------------|	x3
D-----------------------------------|
A-----------------------------------|
E-----------------------------------|

Then play this once:
e------------------------|
B------------------------|
G--6-9-6-8-6/1-----------|
D------------------------|
A------------------------|
E------------------------|

0:21
PM<------------------------>
e---------------------------|
B---------------------------|
G--6-9-6-8-6-9-6-8--6-4-----|
D---------------------------|
A---------------------------|
E---------------------------|


0:28 (x3)
e----------------------------|
B--1212-99-77-55-32----------|
G----------------------------|
D----------------------------|
A----------------------------|
E----------------------------|

e----------------------------|
B--1212-99-77-55-32--12b-----|
G----------------------------|
D----------------------------|
A----------------------------|
E----------------------------|



Chorus:
e---------------------------------------------------------------------|
B--12--12-12-12/9--9-9-9/7-(7)----------12-12-12/9--9-9-9/7-7h9r7-----|
G---------------------------------------------------------------------|
D---------------------------------------------------------------------|
A---------------------------------------------------------------------|
E---------------------------------------------------------------------|

e---------------------------------------------------------------------|
B--9-9-9/7--7-7-7/5--5b---------9-9-9/7--7-7-7/5--5-7--5--------------|
G---------------------------------------------------------------------|
D---------------------------------------------------------------------|
A---------------------------------------------------------------------|
E---------------------------------------------------------------------|

After "Gonna tire the ones we know", play this:
e------------------------|
B------------------------|
G----6---4h6p4-----------|
D------------------------|
A------------------------|
E------------------------|
[ Tab from: http://www.guitaretab.com/k/kings-of-leon/111535.html ]
solo:
e------------------------------------------------------------------|
B---12--14b~---17-16----12h13h12h13h12h13h12h13h12h13-----12--17---|
G------------------------------------------------------------------|
D------------------------------------------------------------------|
A------------------------------------------------------------------|
E------------------------------------------------------------------|

e------------------------------------------------------------------------|
B----17-16-14-12----12h14------------------------------------------------|
G-----------------------------11-13-11-9-11-9-7-9-7-5-7-5-7--------------|
D------------------------------------------------------------------------|
A------------------------------------------------------------------------|
E------------------------------------------------------------------------|

e------------------------------------------------------------------------|
B----------------------------------------12-14b-16-17-16-17-16-----------|
G---7b---7b-7b-7b-7b/5/7--9----------------------------------------------|
D------------------------------------------------------------------------|
A------------------------------------------------------------------------|
E------------------------------------------------------------------------|

e-19----21b-|
B-----------|
G-----------|
D-----------|
A-----------|
E-----------|

Continue to play this:
e---------------------------------------------------------------------|
B--12--12-12-12/9--9-9-9/7-(7)----------12-12-12/9--9-9-9/7-7h9r7-----|
G---------------------------------------------------------------------|
D---------------------------------------------------------------------|
A---------------------------------------------------------------------|
E---------------------------------------------------------------------|

e---------------------------------------------------------------------|
B--9-9-9/7--7-7-7/5--5b---------9-9-9/7--7-7-7/5--5-7--5--------------|
G---------------------------------------------------------------------|
D---------------------------------------------------------------------|
A---------------------------------------------------------------------|
E---------------------------------------------------------------------|

That note played at 3:25
e-19--|
B-----|
G-----|
D-----|
A-----|
E-----|

That's all, folks!
Related for My Third House tab
Advertisement will be closed in 10 seconds