Song name
# A B C D E F G H I J K L M N O P Q R S T U V W X Y Z

Kings Of Leon - Revelry tab

The other tabs are here where quite good, but they were missing a few
parts, so I wrote them out here. It may not be 100% accurate, but it sounds
real close to me.

Constructive criticism please. :]

Rythym (Caleb)

Verse

Strummed lightly once each.

||--------------------------------------------------------||
||--------------------------------------------------------||
||--------------------------------------------------------||
||-------2---------------------------4--------------------||
||-------2---------------------------4--------------------||
||-------0---------------------------0--------------------||

||--------------------------------------------------------||
||--------------------------------------------------------||
||--------------------------------------------------------||
||-------6---------------------------4--------------------||
||-------6---------------------------4--------------------||
||-------0---------------------------0--------------------||

Chorus

Can be played with the top two strings open or with them fretted on the same
fret as the root note of the chord. Not sure which way Caleb plays it, but
I believe it to be this way. Either way sounds good though. Strumming not written out.

||-------0-------------------0-----------------0----------||
||-------0-------------------0-----------------0----------||
||-------6-------------------6-----------------8----------||
||-------7-------------------7-----------------9----------||
||-------7-------------------7-----------------9----------||
||-------5-------------------5-----------------7----------||

Interlude

Strumming not written out.

||-------0------------0-----------0----------0------------||
||-------0------------0-----------0----------0------------||
||-------1------------2-----------4----------2------------||
||-------2------------4-----------6----------4------------||
||-------2------------4-----------6----------4------------||
||-------0------------0-----------0----------0------------||

Rythym order:

Verse x5
Chorus
Interlude x2
Verse x2
Chorus
Interlude until end the end.

|--------------------------------------------------------------------------|
|--------------------------------------------------------------------------|

Lead (Matt)

Pre-verse

Listen for timing.

||--17b19-------------------------------------------------||
||----------------------------12b14-----------------------||
||--------------------------------------------------------||
||--------------------------------------------------------||
||--------------------------------------------------------||
||--------------------------------------------------------||

Verse 2

Matt doesn't come in until the second half of this verse.

||--------7-----7-----7-------------9------9------9-------||
||----9-----9-----9-----9------10-----10-----10-----10----||
||--9---9-----9-----9-----9--9----9------9------9------9--||
||--------------------------------------------------------||
||--------------------------------------------------------||
||--------------------------------------------------------||

||-----------11-------11-------11---------------9------9------9-------||
||-----12-------12-------12-------12-------10-----10-----10-----10----||
||--11----11-------11-------11-------11--9--- 9------9------9------9--||
||--------------------------------------------------------------------||
||--------------------------------------------------------------------||
||--------------------------------------------------------------------||

Chorus

||--5------------------5--------7-------------------------||
||--5------------------5--------7-------------------------||
||--6------------------6--------8-------------------------||
||--7------------------7--------9-------------------------||
||--------------------------------------------------------||
||--------------------------------------------------------||
||--------------------------------------------------------||

Interlude

||--17b19------------14---------------------12b14---------||
||-------------------------12b14----10b12---------12b14---||
||--------------------------------------------------------||
||--------------------------------------------------------||
||--------------------------------------------------------||
||--------------------------------------------------------||

Verse 3

Strum each chord at the beginning of each measure. I put the top strings
notes as ghost notes because the way that Matt plays it sometimes you hear
the note and sometimes you don't.

||-(7)-------------------------(9)------------------------||
||--9---------------------------10------------------------||
||--9---------------------------9-------------------------||
||--9---------------------------7-------------------------||
||--------------------------------------------------------||
||--------------------------------------------------------||
||--------------------------------------------------------||

||-(11)------------------------(9)------------------------||
||--12--------------------------10------------------------||
||--11--------------------------9-------------------------||
||--9---------------------------7-------------------------||
||--------------------------------------------------------||
||--------------------------------------------------------||
||--------------------------------------------------------||

End

||--19b21--17b19-----14---------------------12b14---------||
||-------------------------12b14----10b12---------12b14---||
||--------------------------------------------------------||
||--------------------------------------------------------||
||--------------------------------------------------------||
||--------------------------------------------------------||

Lead order:

Pre-verse
Verse 2
Chorus
Interlude x2
Verse 3 x2
Interlude
Verse 3 x2 (On this repeat, slide into the first note of each measure)
Interlude
End

|--------------------------------------------------------------------------|
|--------------------------------------------------------------------------|

Overdub

The overdub only plays during the interludes.

Interlude

The bass doubles this riff an octave lower so when you play this it may sound like it 
to be played lower.

||--------------------------------------------------------||
||---------------------^--^----------------------^--^-----||
||----------------^---9-12-9----------------^---9-12-9----||
||-----------^---9-11------------------^---9-11-----------||
||----------9-11----------------------9-11----------------|| x2
||--------------------------------------------------------||
||--------------------------------------------------------||

Interlude B

I know at one point near the end of the song the bass plays the riff
differently, but I don't think the guitar does. However, if you'd like to
play the different riff here it is written for the guitar.

||------------------------------------9-------------------||
||---------------------^--^-------------12-9-12-9---------||
||----------------^---9-12-9----------------------11-9----||
||-----------^---9-11-------------------------------------||
||--6---6---9-11--------------4---4-----------------------||
||--6---6---------------------4---4-----------------------||
||--4---4---------------------2---2-----------------------||


|--------------------------------------------------------------------------|
|--------------------------------------------------------------------------|


I believe that's it. Again, it's probably not 100% correct, but it sound
good to me and I feel(For the most part) that it IS correct. Regardless, enjoy!

Tablature : The other tabs are here where quite good, but they were missing a few
parts, so I wrote them out here. It may not be 100% accurate, but it sounds
real close to me.

Constructive criticism please. :]

Rythym (Caleb)

Verse

Strummed lightly once each.

||--------------------------------------------------------||
||--------------------------------------------------------||
||--------------------------------------------------------||
||-------2---------------------------4--------------------||
||-------2---------------------------4--------------------||
||-------0---------------------------0--------------------||

||--------------------------------------------------------||
||--------------------------------------------------------||
||--------------------------------------------------------||
||-------6---------------------------4--------------------||
||-------6---------------------------4--------------------||
||-------0---------------------------0--------------------||

Chorus

Can be played with the top two strings open or with them fretted on the same
fret as the root note of the chord. Not sure which way Caleb plays it, but
I believe it to be this way. Either way sounds good though. Strumming not written out.

||-------0-------------------0-----------------0----------||
||-------0-------------------0-----------------0----------||
||-------6-------------------6-----------------8----------||
||-------7-------------------7-----------------9----------||
||-------7-------------------7-----------------9----------||
||-------5-------------------5-----------------7----------||

Interlude

Strumming not written out.

||-------0------------0-----------0----------0------------||
||-------0------------0-----------0----------0------------||
||-------1------------2-----------4----------2------------||
||-------2------------4-----------6----------4------------||
||-------2------------4-----------6----------4------------||
||-------0------------0-----------0----------0------------||

Rythym order:

Verse x5
Chorus
Interlude x2
Verse x2
Chorus
Interlude until end the end.

|--------------------------------------------------------------------------|
|--------------------------------------------------------------------------|

Lead (Matt)

Pre-verse

Listen for timing.

||--17b19-------------------------------------------------||
||----------------------------12b14-----------------------||
||--------------------------------------------------------||
||--------------------------------------------------------||
||--------------------------------------------------------||
||--------------------------------------------------------||

Verse 2

Matt doesn't come in until the second half of this verse.

||--------7-----7-----7-------------9------9------9-------||
||----9-----9-----9-----9------10-----10-----10-----10----||
||--9---9-----9-----9-----9--9----9------9------9------9--||
||--------------------------------------------------------||
||--------------------------------------------------------||
||--------------------------------------------------------||

||-----------11-------11-------11---------------9------9------9-------||
||-----12-------12-------12-------12-------10-----10-----10-----10----||
||--11----11-------11-------11-------11--9--- 9------9------9------9--||
||--------------------------------------------------------------------||
||--------------------------------------------------------------------||
||--------------------------------------------------------------------||

Chorus

||--5------------------5--------7-------------------------||
||--5------------------5--------7-------------------------||
||--6------------------6--------8-------------------------||
||--7------------------7--------9-------------------------||
||--------------------------------------------------------||
||--------------------------------------------------------||
||--------------------------------------------------------||

Interlude

||--17b19------------14---------------------12b14---------||
||-------------------------12b14----10b12---------12b14---||
||--------------------------------------------------------||
||--------------------------------------------------------||
||--------------------------------------------------------||
||--------------------------------------------------------||

Verse 3

Strum each chord at the beginning of each measure. I put the top strings
notes as ghost notes because the way that Matt plays it sometimes you hear
the note and sometimes you don't.

||-(7)-------------------------(9)------------------------||
||--9---------------------------10------------------------||
||--9---------------------------9-------------------------||
||--9---------------------------7-------------------------||
||--------------------------------------------------------||
||--------------------------------------------------------||
||--------------------------------------------------------||

||-(11)------------------------(9)------------------------||
||--12--------------------------10------------------------||
||--11--------------------------9-------------------------||
||--9---------------------------7-------------------------||
||--------------------------------------------------------||
||--------------------------------------------------------||
||--------------------------------------------------------||

End

||--19b21--17b19-----14---------------------12b14---------||
||-------------------------12b14----10b12---------12b14---||
||--------------------------------------------------------||
||--------------------------------------------------------||
||--------------------------------------------------------||
||--------------------------------------------------------||

Lead order:

Pre-verse
Verse 2
Chorus
Interlude x2
Verse 3 x2
Interlude
Verse 3 x2 (On this repeat, slide into the first note of each measure)
Interlude
End

|--------------------------------------------------------------------------|
|--------------------------------------------------------------------------|

Overdub

The overdub only plays during the interludes.

Interlude

The bass doubles this riff an octave lower so when you play this it may sound like it 
to be played lower.

||--------------------------------------------------------||
||---------------------^--^----------------------^--^-----||
||----------------^---9-12-9----------------^---9-12-9----||
||-----------^---9-11------------------^---9-11-----------||
||----------9-11----------------------9-11----------------|| x2
||--------------------------------------------------------||
||--------------------------------------------------------||

Interlude B

I know at one point near the end of the song the bass plays the riff
differently, but I don't think the guitar does. However, if you'd like to
play the different riff here it is written for the guitar.

||------------------------------------9-------------------||
||---------------------^--^-------------12-9-12-9---------||
||----------------^---9-12-9----------------------11-9----||
||-----------^---9-11-------------------------------------||
||--6---6---9-11--------------4---4-----------------------||
||--6---6---------------------4---4-----------------------||
||--4---4---------------------2---2-----------------------||


|--------------------------------------------------------------------------|
|--------------------------------------------------------------------------|


I believe that's it. Again, it's probably not 100% correct, but it sound
good to me and I feel(For the most part) that it IS correct. Regardless, enjoy!
Tap to rate this tab
# A B C D E F G H I J K L M N O P Q R S T U V W X Y Z