Guitaretab - guitar tabs
Song name
# A B C D E F G H I J K L M N O P Q R S T U V W X Y Z

Kings Of Leon - Cold Desert tab

-------------------------------------------------------------------------------
			     Cold Desert - Kings of Leon
-------------------------------------------------------------------------------
Tabbed by: J Calendo
Email:

Tuning:Standard
Notes: use alot of reverb with light distortion

e|------------------------------------------------------12------------------|
B|---12----12------------12--------------12-------------15b--15--15-15-15---|
G|---14b---14b-----------14b-------------14b--------------------------------|
D|--------------12~~~~~-------11~~~~~--------9~~~~~-------------------------|
A|--------------------------------------------------------------------------|
E|--------------------------------------------------------------------------|

e|--------------------------------------------------------------------------|
B|-15-15-15--15-15-15-/17--12--12-12-12--12-12-12--12-12-12----10--10/---15-|
G|--------------------------------------------------------------------------|
D|--------------------------------------------------------------------------|
A|--------------------------------------------------------------------------|
E|--------------------------------------------------------------------------|
[ Tab from: http://www.guitaretab.com/k/kings-of-leon/115690.html ]
e|--------------------------------------------------------------------------|
B|--15-15-15--15-15-15--15-15-15--/17--12--12-12-12--12-12-12---12-12-12----|
G|--------------------------------------------------------------------------|
D|--------------------------------------------------------------------------|
A|--------------------------------------------------------------------------|
E|--------------------------------------------------------------------------|

              Repeat    until   fadeout  at  4:05
e|---------|----------------------------------------------------------------|
B|-10--10/-|15--15-15-15--15-15-15--15-15-15-/17---12--12-12-12--12-12-12---|
G|---------|----------------------------------------------------------------|
D|---------|----------------------------------------------------------------|
A|---------|----------------------------------------------------------------|
E|---------|----------------------------------------------------------------|

e|---------------------|----------------------------------------------------|
B|-12-12-12---10--10-/-|----------------------------------------------------|
G|---------------------|----------------------------------------------------|
D|---------------------|----------------------------------------------------|
A|---------------------|----------------------------------------------------|
E|---------------------|----------------------------------------------------|


| /  slide up
| \  slide down
| h  hammer-on
| p  pull-off
| ~  vibrato
| +  harmonic
| x  Mute note
===============================================================================
Related for Cold Desert tab
×
Cold Desert