Song name
# A B C D E F G H I J K L M N O P Q R S T U V W X Y Z

Kings Of Leon - Frontier City tab

Well this is just the basics to the song once I get the rest I will put it up... I cant
the credit for this though my bass player actually showed me how to play it so 
thanks to bassplayer1010!

Intro:
                             1st time         2nd
                        __________________   ____
                       |                  | |    |
E|-----------------------------------------*-----------|
B|-----------------------------------------*-----------|
G|-----------------------------------------*-----------|
D|-4-4-4-4-11-11-11-11-12-12-12-12-7-7-7-7-*-12~~~-----|
A|-4-4-4-4-11-11-11-11-12-12-12-12-7-7-7-7-*-12~~~-----|
E|-2-2-2-2-9--9--9--9--10-10-10-10-5-5-5-5-*-10~~~-----|
                     OR
                       1st time        2nd
                    ______________     ____
                   |              |   |    |
E|----------------------------------*-----------|
B|----------------------------------*-----------|
G|---------6-6-6-6-7-7-7-7-2-2-2-2--*--7~~~-----|
D|-4-4-4-4-6-6-6-6-7-7-7-7-2-2-2-2--*--7~~~-----|
A|-4-4-4-4-4-4-4-4-5-5-5-5-0-0-0-0--*--5~~~-----|
E|-2-2-2-2--------------------------*-----------|

Verse: Repeat these chords how you hear it in the song its quite easy..
   A           D
E|--------------------|
B|-2-----------7------|
G|-2-----------7------|
D|-2-----------7------|
A|-0-----------5------|
E|--------------------|

Chorus: same as the verse

                            1,2,3            4th
                        __________________   ____
                       |                  | |    |
E|-----------------------------------------*-----------|
B|-----------------------------------------*-----------|
G|-----------------------------------------*-----------|
D|-4-4-4-4-11-11-11-11-12-12-12-12-7-7-7-7-*-12~~~-----|
A|-4-4-4-4-11-11-11-11-12-12-12-12-7-7-7-7-*-12~~~-----|
E|-2-2-2-2-9--9--9--9--10-10-10-10-5-5-5-5-*-10~~~-----|
                     OR
                       1,2,3           4th
                    ______________     ____
                   |              |   |    |
E|----------------------------------*-----------|
B|----------------------------------*-----------|
G|---------6-6-6-6-7-7-7-7-2-2-2-2--*--7~~~-----|
D|-4-4-4-4-6-6-6-6-7-7-7-7-2-2-2-2--*--7~~~-----|
A|-4-4-4-4-4-4-4-4-5-5-5-5-0-0-0-0--*--5~~~-----|
E|-2-2-2-2--------------------------*-----------|

Verse: repeat above

Chorus: repeat chorus but keep playing the first part through to the outro/solo(dont do
hold on the D!!!)

Outro/Solo: repeat chorus riff X8 or however long you realy want it.. sorry I dont have
solo Ill work on it! thanks and comment please! If you have questions my email is 
avenged_priest_7@hotmail.com
Tap to rate this tab
 
# A B C D E F G H I J K L M N O P Q R S T U V W X Y Z