Song name
# A B C D E F G H I J K L M N O P Q R S T U V W X Y Z

Kings Of Leon - Wasted Time tab

-------------------------------------------------------------------------------
			     Wasted Time - Kings of Leon
-------------------------------------------------------------------------------

Tabbed by: Grantburgh
Email: Grantburgh@hotmail.com



Tuning: EADGBe


INTRO

e|------------------------------------|
B|------------------------------------|
G|------------------------------------| X4
D|------2-----2-----------------------|
A|----------------4/5-----------------|
E|---0-----0--------------------------|

e|--------------------------------0------------------------------------------|
B|--5-------5-------5---5---5-----5-----3-2-0----3-2-0-----------------------|
G|--7-6-----7-6-----7-6-7-6-7-----4-----3-2-0----3-2-0-----------------------|
D|--7-7-----7-7-----7-7-7-7-7-----0------------------------------------------|
A|--5-7-----5-7-----5-7-5-7-5------------------------------------------------|
E|----5-------5-------5---5--------------------------------------------------|

e|---0-----------------------------------------------------------------------|
B|---5-----3-2-0----3-2-0----------------------------------------------------|
G|---4-----3-2-0----3-2-0----------------------------------------------------|
D|---0-----------------------------------------------------------------------|
A|---------------------------------------------------------------------------|
E|---------------------------------------------------------------------------|

e|--------------------------------------------------|
B|--------------------------------------------------|
G|--------------------------------------------------|  X4
D|---2-2-2-2-2-2-2-5-5----2-2-2-2-2-2-2-5-5---------|
A|---2-2-2-2-2-2-2-5-5----2-2-2-2-2-2-2-5-5---------|
E|---0-0-0-0-0-0-0-3-3----0-0-0-0-0-0-0-3-3---------|

e|------------------------------------|
B|------------------------------------|
G|------------------------------------| X4
D|------2-----2-----------------------|
A|----------------4/5-----------------|
E|---0-----0--------------------------|

e|--------------------------------0-----------------------0------------------|
B|--5-------5-------5---5---5-----5-----3-2-0----3-2-0----5---3-2-0--3-2-0---|
G|--7-6-----7-6-----7-6-7-6-7-----4-----3-2-0----3-2-0----4---3-2-0--3-2-0---|
D|--7-7-----7-7-----7-7-7-7-7-----0-----------------------0------------------|
A|--5-7-----5-7-----5-7-5-7-5------------------------------------------------|
E|----5-------5-------5---5--------------------------------------------------|

e|---------------------------------------------------------------------------|
B|---------------------------------------------------------------------------|
G|---------0-------------------0---------------------------------------------| x2
D|-------2------0-----2------2------0-----2----------------------------------|
A|---2/4------2---2/4----2/4------2---2/4------------------------------------|
E|---------------------------------------------------------------------------|

e|---12----12----12----12----------------------------------------------------|
B|---15b17-15b17-15b17-17r15-------------------------------------------------|
G|---------------------------------------------------------------------------| 
D|---------------------------------------------------------------------------|            
A|---------------------------------------------------------------------------|
E|---------------------------------------------------------------------------|
>>With good dosage of WAH and vibrato<<
>>>Let ring<<<

e|----------------------------------------|
B|--------3-2-0----3-2-0------------------|
G|--------3-2-0----3-2-0------------------| X4
D|----------------------------------------|
A|----------------------------------------|
E|----------------------------------------|


e|--------------------------------0------------------------------------------|
B|--5-------5-------5---5---5-----5-----3-2-0----3-2-0-----------------------|
G|--7-6-----7-6-----7-6-7-6-7-----4-----3-2-0----3-2-0-----------------------|X2
D|--7-7-----7-7-----7-7-7-7-7-----0------------------------------------------|
A|--5-7-----5-7-----5-7-5-7-5------------------------------------------------|
E|----5-------5-------5---5--------------------------------------------------|

e|---0-----------------------|         -----------|
B|---5---3-2-0--3-2-0--------|         -----------|
G|---4---3-2-0--3-2-0--------| X4      --------1--|
D|---0-----------------------|         --------2--|
A|---------------------------|         --------2--|
E|---------------------------|         -12\----0--|




| /  slide up
| \  slide down
| h  hammer-on
| p  pull-off
| ~  vibrato
| +  harmonic
| x  Mute note
===============================================================================
Tap to rate this tab
# A B C D E F G H I J K L M N O P Q R S T U V W X Y Z