Song name
# A B C D E F G H I J K L M N O P Q R S T U V W X Y Z

Kings Of Leon - Notion tab

-------------------------------------------------------------------------------
			     notion - kings of leon
-------------------------------------------------------------------------------
Tabbed by:pauli
Email:pauli.ahashakeheartbreak@hotmail.co.uk

put all the riffs together, and enjoy playing :)
(lyrics from www.metrolyrics.com so sorry if they're wrong)
i'm on tabbing I Want You for my next tab, so check for it soon

Tuning:standard EADGBe

riff 1 (intro, played with delay to get exact effect)
e|--0-0-0-0-0-0-0----0-0-0-0----0-0-0----0-0--------------------------------|
B|-5-5-5-4-2-2-2-2/10-9-9-9-9/12-7-7-7/10--9--------------------------------|
G|--------------------------------------------------------------------------|
D|--------------------------------------------------------------------------|
A|--------------------------------------------------------------------------|
E|--------------------------------------------------------------------------|

riff 2 (caleb plays during intro over riff 1)
strumming not marked exactly

   E    E      A      C#m    B
e|-------------5-5555-4-4444------------------------------------------------|
B|-9----9-9999-5-5555-5-5555------------------------------------------------|
G|-9----9-9999-6-6666-6-6666-4-4444-----------------------------------------|
D|-9----9-9999-7-7777-6-6666-4-4444-----------------------------------------|
A|-7----7-7777-7-7777-4-4444-2-2222-----------------------------------------|
E|-------------5-5555-------------------------------------------------------|

verse 1, riff 2

chorus
"so don't knock it, don't knock it, you been here before"
riff 3 (matthew, quick muted chord before each strum)
   E   A    C#m B
e|-----5-5--4-4-------------------------------------------------------------|
B|-9-9-5-5--5-5-------------------------------------------------------------|
G|-9-9-6-6--6-6-4-4---------------------------------------------------------|
D|-9-9-7-7--6-6-4-4---------------------------------------------------------|
A|-7-7-7-7--4-4-2-2---------------------------------------------------------|
E|-----5-5------------------------------------------------------------------|

riff 1 and riff 2

verse 2, riff 2

"...everyone says they don't know"
riff 4 (matthew, can be played two ways, both sound right)
e|-------0-------0-------0---------0----------------------------------------|
B|-4h5-5-5-4h5-5-5-4h5-5-5-4h5p4h5-5----------------------------------------|
G|--------------------------------------------------------------------------|
D|--------------------------------------------------------------------------|
A|--------------------------------------------------------------------------|
E|--------------------------------------------------------------------------|
or
e|-0---00-0---00-----00-0---------------------------------------------------|
B|-4/5-55-4/5-55-4/5-55-4/5\4/5---------------------------------------------|
G|--------------------------------------------------------------------------|
D|--------------------------------------------------------------------------|
A|--------------------------------------------------------------------------|
E|--------------------------------------------------------------------------|

chorus, riff 2 and riff 3

solo (matthew)
e|--------------------------------------------------------------------------|
B|-5-4-2-5b7-4-7b9-542-540-5-4-2-5b7-4-7b9-540-2b4--------------------------|
G|--------------------------------------------------------------------------|
D|--------------------------------------------------------------------------|
A|--------------------------------------------------------------------------|
E|--------------------------------------------------------------------------|

verse 3, riff 2

pre chorus (matthew)
riff 5
e|-0-0--0-0---0-0-0-0-------------------------------------------------------|
B|-----------5-5-5-5--------------------------------------------------------|
G|----------4-4-4-4---------------------------------------------------------|
D|--------------------------------------------------------------------------|
A|--------------------------------------------------------------------------|
E|--------------------------------------------------------------------------|

chorus, riff 2 and riff 5

end
Tap to rate this tab
# A B C D E F G H I J K L M N O P Q R S T U V W X Y Z