Song name
# A B C D E F G H I J K L M N O P Q R S T U V W X Y Z

Kings Of Leon - Use Somebody tab

                             Use Somebody                                   

                             Kings of Leon
Solo

Standard Tuning (EADGBe)


  Q    Q    Q    Q        E  E  E  E  E  E  E  E   
-----------------------|--------------------------|
-----------------------|--------------8--8--8--8--|
-----------------5s----|--9--9--9--9--------------|
-----------------------|--------------------------|
-----------------------|--------------------------|
-----------------------|--------------------------|


   E   E   E   E   E   E   E  E     H        E  E  Q       
---------------------------------|------------------------|
---------------------------------|------------------------|
--------------10--10--10--10--9--|--9--------x--x--9br----|
--10--10--10---------------------|------------------------|
---------------------------------|------------------------|
---------------------------------|------------------------|


  Q.     Q.      Q       E  E  E  E  E  E  E  E   
----------------------|--------------------------|
----------------------|--------------8--8--8--8--|
--L------7------------|--9--9--9--9--------------|
----------------10----|--------------------------|
----------------------|--------------------------|
----------------------|--------------------------|


   E   E   E   E   E   E   E  E     H        E  E  Q       
---------------------------------|------------------------|
---------------------------------|------------------------|
--------------10--10--10--10--9--|--9--------x--x--9br----|
--10--10--10---------------------|------------------------|
---------------------------------|------------------------|
---------------------------------|------------------------|


  Q.     Q.      Q       E  E  E  E  E  E  E  E   
----------------------|--------------------------|
----------------------|--------------8--8--8--8--|
--L------7------------|--9--9--9--9--------------|
----------------10----|--------------------------|
----------------------|--------------------------|
----------------------|--------------------------|


   E   E   E   E   E   E   E  E     H        E  E  Q       
---------------------------------|------------------------|
---------------------------------|------------------------|
--------------10--10--10--10--9--|--9--------x--x--9br----|
--10--10--10---------------------|------------------------|
---------------------------------|------------------------|
---------------------------------|------------------------|


  Q.     Q.      Q       E  E  E  E  E  E  E  E   
----------------------|--------------------------|
----------------------|--------------8--8--8--8--|
--L------7------------|--9--9--9--9--------------|
----------------10----|--------------------------|
----------------------|--------------------------|
----------------------|--------------------------|


   E   E   E   E   E   E   E  E     H        E  E  Q       
---------------------------------|------------------------|
---------------------------------|------------------------|
--------------10--10--10--10--9--|--9--------x--x--9br----|
--10--10--10---------------------|------------------------|
---------------------------------|------------------------|
---------------------------------|------------------------|


  Q.     Q.      Q       E  E  E  E  E  E  E  E     E  E  E  E  E  E  E  E    
----------------------|--------------------------|---------------------------|
----------------------|--------------8--8--8--8--|---------------------------|
--L------7------------|--9--9--9--9--------------|-----------------5---------|
----------------10----|--------------------------|--7--7--7--7--7-----7--7b--|
----------------------|--------------------------|---------------------------|
----------------------|--------------------------|---------------------------|


  W                   H        H           W                 
-------------------|--------------------|-------------------|
-------------------|--------------------|--5----------------|
-------------------|--------------------|-------------------|
--L----------------|--L-----------------|-------------------|
-------------------|--------------------|-------------------|
-------------------|--------------------|-------------------|


  W                   W                   W                 
-------------------|-------------------|-------------------|
--L----------------|--L----------------|--L----------------|
-------------------|-------------------|-------------------|
-------------------|-------------------|-------------------|
-------------------|-------------------|-------------------|
-------------------|-------------------|-------------------|


  W                    H        H          
--------------------|--------------------||
--L-----------------|--L-----------------||
--7~----------------|--L-----------------||
--------------------|--------------------||
--------------------|--------------------||
--------------------|--------------------||




Duration Legend
---------------
W - whole
H - half
Q - quarter
E - 8th
S - 16th
T - 32nd
X - 64th
. - note dotted
|-n-|  - n-tuplets


Tablature Legend
----------------
L - tied note
x - dead note
g - grace note
(n) - ghost note
> - accentuded note
NH - natural harmonic
AH - artificial harmonic
TH - tapped harmonic
SH - semi harmonic
PH - pitch harmonic
h - hammer on
p - pull off
b - bend
br - bendRelease
pb - preBend
pbr - preBendRelease
brb - bendReleaseBend
\n/ - tremolo bar dip
\n - tremolo bar dive
-/n - tremolo bar Release up
/n\ - tremolo bar inverted dip
/n - tremolo bar return
-\n - tremolo bar Release down
S - shift slide
s - legato slide
/ -  slide into from below or out of upwards
\ -  slide into from above or out of downwards
~ - vibrato
W - wide vibrato
tr - trill
TP - tremolo picking
T - tapping
S - slap
P - pop
< - fade in
^ - brush up
v - brush down
Tap to rate this tab
# A B C D E F G H I J K L M N O P Q R S T U V W X Y Z