Song name
# A B C D E F G H I J K L M N O P Q R S T U V W X Y Z

Kings Of Leon - Notion tab

-----------------------------------------------------------------------------
Kings Of Leon - Notion                                     by:Guitar-masterrr
-----------------------------------------------------------------------------
Intro

e|--0--0--0--0--0--0--0----0--0--0--0--0--0--0--0--0-|
B|-5--5--5--4--2--2--2-2/10--9--9--9-12--7--7-10--9--|
G|---------------------------------------------------|
D|---------------------------------------------------| x4
A|---------------------------------------------------|
E|---------------------------------------------------|

Verse 1

E                  A                     C#m
 I gotta notion to say what doesn't feel right

                      B               E
Got an answer in your story today

             A                     C#m       B
It gave me a sign that didn't feel right, no

Chorus

E                              A                    C#m        B
So don't knock it, don't knock it, you've been here before

E                              A                     C#m        B
So don't knock it, don't knock it, you've been there before

Riff 1

e|--0--0--0--0--0--0--0----0--0--0--0--0--0--0--0--9-|
B|-5--5--5--4--2--2--2-2/10--9--9--9-12--7--7-10--9--|
G|---------------------------------------------------|
D|---------------------------------------------------| x2
A|---------------------------------------------------|
E|---------------------------------------------------|

Verse 2

E                A                  C#m
I just wanted to know if i could go home

              B                E
Been rambling day after day

             A            C#m       B
And everyone says i don't know

e|------------------------------------------|
B|-5-5-5-5---5-5-5-5-----5-5-5-5----4-4-4-4-|
G|------------------------------------------|
D|------------------------------------------|
A|------------------------------------------|
E|------------------------------------------|

Chorus

E                              A                    C#m        B
So don't knock it, don't knock it, you've been here before

E                              A                    C#m        B
So don't knock it, don't knock it, you've been here before

Riff 2

e|-----------------------------|-----------------------------|
B|-5-4-2-5b--4-7b--5-4-2-5-4-0-|-5-4-2-5b--4-7b--5-4-2-5b/5~-|
G|-----------------------------|-----------------------------|
D|-----------------------------|-----------------------------|
A|-----------------------------|-----------------------------|
E|-----------------------------|-----------------------------|

Verse 3

E               A                     C#m       B
Gotta notion to say what doesn't feel right

E                A                  C#m       B 
I just wanted to know if i could go home

Chorus

(Guitar 1)
e|------------------------------------------------|
B|-5--0--5--0--5--0--5--0--5--0--5--0--5--0--5--0-|
G|------------------------------------------------|
D|------------------------------------------------|x6
A|------------------------------------------------|
E|------------------------------------------------|

E                              A                    C#m        B
So don't knock it, don't knock it, you've been here before

E                              A                    C#m        B
So don't knock it, don't knock it, you've been here before

(Guitar 2)
e|--0--0--0--0--0--0--0----0--0--0--0--0--0--0--0--9-|
B|-5--5--5--4--2--2--2-2/10--9--9--9-12--7--7-10--9--|
G|---------------------------------------------------|
D|---------------------------------------------------| x4
A|---------------------------------------------------|
E|---------------------------------------------------|

E                              A       C#m        B
So don't knock it, don't knock it

E                              A       C#m        B
So don't knock it, don't knock it

E                           A                    C#m           B
Don't knock it, don't knock it, you've been here before

E                           A                    C#m           B
Don't knock it, don't knock it, you've been here before

End on: E

I hope you enjoyed it!
Tap to rate this tab
# A B C D E F G H I J K L M N O P Q R S T U V W X Y Z