Song name
# A B C D E F G H I J K L M N O P Q R S T U V W X Y Z

Kings Of Leon - Be Somebody tab

Kings of Leon
Only by the Night
Be Somebody
Standard tuning


((((Intro/Verse))))

Caleb (throughout the verse):
e|----------------------------------|
B|----------------------------------|
G|----------------------------------|
D|----------------------------------|
A|--5-5-5-5-5-5-5-5-5-5-5-5-5-5-5-5-|
E|-0-0-0-0-0-0-0-0-3-3-3-3-2-2-2-2--|

Matthew (live, not the same on record - just mess around):
e|-------<7>-----<12>---0-|
B|-<12>-------------------|
G|---------<7>------------|
D|------------------------|
A|------------------------|
E|------------------------|

e|-------<7>-----<12>-----|
B|-<12>-----------------0-|
G|---------<7>------------|
D|------------------------|
A|------------------------|
E|------------------------|

Jared (bass):
G|--------------------|
D|--------------------|
A|--------------------|
E|-0(x16)-3(x8)-2(x8)-|

Matthew (when Caleb sings 'you can't get enough'):
e|---------------|
B|---------------|
G|---------------|
D|-2~-----2~-----| strum  |
A|-2~-----2~-----|   up-  |
E|-0~-----0~-----| wards  V


((((Chorus))))

Caleb:
e|----------------------------------|
B|----------------------------------|
G|----------------------------------|
D|----------------------------------|
A|--7-7-7-7-7-7-7-7-7-7-7-7-9-9-9-9-|
E|-5-5-5-5-5-5-5-5-0-0-0-0-7-7-7-7--|

Jared:
G|----------11-12s14s12-11-|
D|-12-11-12----------------|
A|-------------------------|
E|-------------------------|

Matthew:
e|---7---7---7----4------4s5-4-|
B|-----------------------------|
G|-9---9---9---6---6---4-------|
D|-----------------------------|
A|-----------------------------|
E|-----------------------------|

((((Outro))))

Caleb:
e|-----------------|
B|-----------------|
G|-----------------|
D|-----------------|
A|-5-5-5-5-5-5-5-5-|
E|-0-0-3-0-0-0-0-3-|

Jared:
G|--------------------|
D|--------------------|
A|--------------------|
E|-0(x16)-3(x8)-2(x8)-|

Matthew:
e|-0--0-0-|
B|-0--0-0-|
G|-14-7-9-|
D|-0--0-0-|
A|-12-5-7-|
E|-0--0-0-|
Tap to rate this tab
# A B C D E F G H I J K L M N O P Q R S T U V W X Y Z