Song name
# A B C D E F G H I J K L M N O P Q R S T U V W X Y Z

Kings Of Leon - My Third House tab

----------------------------------------------------------------------------
			     My Third House - Kings Of Leon 
----------------------------------------------------------------------------
Album: Because Of The Times (B-side)
Tabbed by:BlocPartyFreak
Email:madfender@gmail.com

Sorry if this tab is so long, I just want it to be perfect!

Tuning:Standard EADGBE

-----------------------------Rhythm Part(Caleb)-----------------------------
Figure out Rhythm, it's quite easy.

Intro
0:00 - 0:14
e|---11---|
B|---12---|
G|---13---|
D|---13---|
A|---11---|
E|--------|

Verse
0:14 - 0:21 Bass (Rest)

0:21 - 0:28
e|--------------------------------------------|
B|--------------------------------------------|
G|--------------------------------------------|
D|--------------------------------------------|
A|--2-------2----------------------2----------|
E|-0-0--0-0--0--0-0-0--0--0-0-0--0-0--0-0-----|

0:28 - 0:34
e|---11---|
B|---12---|
G|---13---|
D|---13---|
A|---11---|
E|--------|

0:34 - 0:42 Bass (Rest)

0:42 - 0:49
e|--------------------------------------------|
B|--------------------------------------------|
G|--------------------------------------------|
D|--------------------------------------------|
A|--2-------2----------------------2----------|
E|-0-0--0-0--0--0-0-0--0--0-0-0--0-0--0-0-----|

0:49 - 0:55
e|---11---|
B|---12---|
G|---13---|
D|---13---|
A|---11---|
E|--------|

Chorus
0:55 - 1:24

e|---7~--6~--2~--2~------|
B|---7~--6~--2~--2~------|
G|---8~--7~--3~--3~------|
D|---9~--8~--4~--4~------| x2
A|---9~--8~--4~--4~------|
E|---7~--6~--2~--2~------|

Verse
1:24 - 1:30
e|---11---|
B|---12---|
G|---13---|
D|---13---|
A|---11---|
E|--------|

1:30 - 1:38 (Rest)

1:38 - 1:45
e|--------------------------------------------|
B|--------------------------------------------|
G|--------------------------------------------|
D|--------------------------------------------|
A|--2-------2----------------------2----------|
E|-0-0--0-0--0--0-0-0--0--0-0-0--0-0--0-0-----|

1:45 - 1:51
e|---11---|
B|---12---|
G|---13---|
D|---13---|
A|---11---|
E|--------|

Chorus
1:52 - 2:21

e|---7~--6~--2~--2~------|
B|---7~--6~--2~--2~------|
G|---8~--7~--3~--3~------|
D|---9~--8~--4~--4~------| x2
A|---9~--8~--4~--4~------|
E|---7~--6~--2~--2~------|

Solo
2:25 - 3:03

(I think?)
e|---7--2--2------|
B|---7--2--2------|
G|---8--3--3------| <<
                        
                    
Tap to rate this tab
# A B C D E F G H I J K L M N O P Q R S T U V W X Y Z