Song name
# A B C D E F G H I J K L M N O P Q R S T U V W X Y Z

Kings Of Leon - Cold Desert tab

Kings Of Leon - Cold Desert

Basically, instead of holding the note played on the 6th fret for the full amount that 
7th fret G string (tehe) is played for, the time is split between the 6th and 4th fret.

0:16 - 0:50
e|-------------------------------------------------------------------------|
B|-------------------------------------------------------------------------|
G|---7--6--4--2-------12-11-2/12-11-4-2-7---6--4--2--0---------------------|
D|-------------------------------------------------------------------------|
A|-------------------------------------------------------------------------|
E|-------------------------------------------------------------------------|


0:51 - 1:19
e|-------------------------------------------------------------------------|
B|-------------------------------------------------------------------------|
G|---7--6--4--2-------12-11-2/12-11-4-2/7---6--4--2------------------------|
D|-------------------------------------------------------------------------|
A|-------------------------------------------------------------------------|
E|-------------------------------------------------------------------------|


1:20 - 1:40
e|---15-14-7-15-14-9-5-10--------------------------------------------------|
B|-------------------------------------------------------------------------|
G|-------------------------------------------------------------------------|
D|-------------------------------------------------------------------------|
A|-------------------------------------------------------------------------|
E|-------------------------------------------------------------------------|


1:41 - 2:09                               *   * * *
e|-------------------------------------------------------------------------|
B|-------------------------------------------------------------------------|
G|---7--9-6--4--2-------12-11-2/12-11-4-2/7-9-6-4-2------------------------|
D|-------------------------------------------------------------------------|
A|-------------------------------------------------------------------------|
E|-------------------------------------------------------------------------|


2:10 - 2:57            * * * *
e|-------------------------------------------------------------------------|
B|-------------------------------------------------------------------------|
G|---12-11-2/12-11-4-2/7-6-4-2---12-11-2/12-11-4-2/7-----------------------|
D|-------------------------------------------------------------------------|
A|-------------------------------------------------------------------------|
E|-------------------------------------------------------------------------|


2:58 - 3:18            * * * * *
e|-------------------------------------------------------------------------|
B|-------------------------------------------------------------------------|
G|---12-11-2/12-11-4-2/7-6-4-2-0-------------------------------------------|
D|-------------------------------------------------------------------------|
A|-------------------------------------------------------------------------|
E|-------------------------------------------------------------------------|


3:19 - 3:52
e|-------------------------12b-10v-----------------------------------------|
B|-------------------------------------------------------------------------|
G|---9b-9b-7v-9b-6v-9b-4v-----------7v-6b-4-2--12-11-2/12-11-4-2/7---------|
D|-------------------------------------------------------------------------|
A|-------------------------------------------------------------------------|
E|-------------------------------------------------------------------------|


3:53 - 4:05
e|-------------------------------------------------------------------------|
B|-------------------------------------------------------------------------|
G|---6br-4-2---------------------------------------------------------------|
D|-------------------------------------------------------------------------|
A|-------------------------------------------------------------------------|
E|-------------------------------------------------------------------------|


4:06 - 4:37
e|-------------------------------------------------------------------------|
B|------SILENCE------------------------------------------------------------|
G|-------------------------------------------------------------------------|
D|-------------------------------------------------------------------------|
A|-------------------------------------------------------------------------|
E|-------------------------------------------------------------------------|


4:38 - 5:12
e|-------------------------------------------------------------------------|
B|---17b-17b-15--14b-14b--17b-17b-15---------------------------------------|
G|-------------------------------------15b---------------------------------|
D|-------------------------------------------------------------------------|
A|-------------------------------------------------------------------------|
E|-------------------------------------------------------------------------|


5:13 - 5:30
e|-------------------------------------------------------------------------|
B|-------------------------------------------------------------------------|
G|---7----4----2----7------------------------------------------------------|
D|-------------------------------------------------------------------------|
A|-------------------------------------------------------------------------|
E|-------------------------------------------------------------------------|


* - Keep strumming on the note
Tap to rate this tab
 
# A B C D E F G H I J K L M N O P Q R S T U V W X Y Z