Song name
# A B C D E F G H I J K L M N O P Q R S T U V W X Y Z

Kings Of Leon - Be Somebody tab

--------------------------------------------------------------------------|
--------------------------------------------------------------------------|
--------------------------------------------------------------------------|
----0--0--0-----0-----0--0--0-----0-----0--0--0-----0-----0--0--0-----0---|
--------------------------------------------------------------------------|
-0-----------0-----0-----------0-----3-----------3-----2-----------2------|
= repeating

in chorus:

------------------|
------------------|
------------------|
--------5-6/8-6-5-|
--6-5-6-----------|
------------------|
=repeating
Tap to rate this tab
# A B C D E F G H I J K L M N O P Q R S T U V W X Y Z