Song name
# A B C D E F G H I J K L M N O P Q R S T U V W X Y Z

Kings Of Leon - Frontier City tab

Frontier City - Kings of Leon

I took part of the work from the previous versions and i change them as i think it's rigth.
hope u enjoy it.


(Intro - Lead)
|------------------------------------------------------------------|
|--14-14-14-14-14-14-14-14-14h15p14-12-7-10-7-14h15p14-12-14-12\---|
|----------------------------------- ------------------------------|
|------------------------------------------------------------------|   
|------------------------------------------------------------------|
|------------------------------------------------------------------|

(Intro - Rhythm) 
    Bm       F#m           D           A        Bm       F#m          D
|---------------------------------------------------------------------------|
|---------------------------------------------------------------------------|
|---------------------------------------------------------------------------|
|---4-4-4-4--11-11-11-11--12-12-12-12--7-7-7-7--4-4-4-4--11-11-11-11--12~---|
|---2-2-2-2--11-11-11-11--12-12-12-12--7-7-7-7--2-2-2-2--11-11-11-11--12~---|
|---2-2-2-2--9--9--9--9---10-10-10-10--5-5-5-5--2-2-2-2--9--9--9--9---10~---|



(Verse - Riff)
                                   x2                                    x2    
|----------------------------------|-------------------------------------| 
|----------------------------------|-------------------------------------| 
|----------------------------------|---11p--9---9h11----11---11-11-11----|
|---11p--9---9h11----11---11-11-11-|---0----0---0-------0----0--0--0-----|
|---0----0---0-------0----0--0--0--|-------------------------------------|
|----------------------------------|-------------------------------------|


 A   D

Verse #1
A
Find yourself a new frontier
D
Cause life is going, going gone
A
Fly yourself away from here into the clear
D
Before it's going, going, gone


(Bridge)
|------------------------------------------------|
|------------------------------------------------|
|-------------------------7h9^--7--6---\2 -------|
|--7--7h9--9--7-9-11--9--7-----------------------|
|------------------------------------------------|
|------------------------------------------------|


Verse #2
A
Say it loud and in the light
D
For it's going, going gone
A
Shake the hands, the hands that pick, pick the fight
D
Cause life is going, going gone


(Chorus)  
    Bm       F#m           D           A        x3  Bm       F#m          D
|-----------------------------------------------|-------------------------------|
|-----------------------------------------------|-------------------------------|
|-----------------------------------------------|-------------------------------|
|---4-4-4-4--11-11-11-11--12-12-12-12--7-7-7-7--|---4-4-4-4--11-11-11-11--12~---|
|---2-2-2-2--11-11-11-11--12-12-12-12--7-7-7-7--|---2-2-2-2--11-11-11-11--12~---|
|---2-2-2-2--9--9--9--9---10-10-10-10--5-5-5-5--|---2-2-2-2--9--9--9--9---10~---|

Chorus
Bm        F#m          D       A
Yes I'll find you and cut you down
Am        Em           D       A
Friends and neighbours, sleepy town
Bm     F#m      D          A
If you wake up before the blow
Bm       F#m
Pick your face up
D
We come, we go, We live until we live no more


Verse#3
A
Travel with the dead black eye
D
Before it's come and come and gone
A
Cradles and rocking chairs, beneath the light
D
Before it's come and come and gone


Chorus
Bm        F#m          D       A
Yes I'll find you and cut you down
Bm          F#m         D       A
Friends and neighbours, sleepy town
Bm        F#m         D     A
If you wake up before the blow
Bm       F#m
Pick your face up

C           A
We come, and go
C           A
We come and go, go     (Pre Solo)
C           A
We come and go, go


(Pre Solo)
								     x2
|------------------------------------12-----------------12-----------|
|------------------------------12h14p12h14-12-14--12h14p12h14-12-14--|
|--14h16-14----14--14h16-14------------------------------------------|
|-----------16--------------16---------------------------------------|
|--------------------------------------------------------------------|
|--------------------------------------------------------------------|

(Solo)
..Working on it..


This song ROCKS!
Tap to rate this tab
 
# A B C D E F G H I J K L M N O P Q R S T U V W X Y Z