Song name
# A B C D E F G H I J K L M N O P Q R S T U V W X Y Z

Kings Of Leon - Runner tab

starts

e--0--0--0---0------0--0-----|
b----------------------------|
g----------------------------|
d----------------------------|  play once then:
a----------------------------|
e-0--4--5-5-4--5-5-4--4--4-0-|

e-0--4--7--12-11-7-12-11-7--7--5--4-|
b-----------------------------------|
g-----------------------------------|
d-----------------------------------|
a-----------------------------------|
e-----------------------------------|


^^^^play during verse then chorus goes:

e-----------------5/7-77777/5-55/7-77777/5-55-|
b-----------------5/7-77777/5-55/7-77777/5-55-|
g-111-111-111-111-6/8-88888/6-66/8-88888/6-66-|
d-222-222-222-222-7/9-99999/7-77/9-99999/7-77-|
a-----------------7/9-99999/7-77/9-99999/7-77-|
e-----------------5/7-77777/5-55/7-77777/5-55-|

and thats about it just repeat all way through song :D


if anyone can think of any improvements please comment.
Tap to rate this tab
# A B C D E F G H I J K L M N O P Q R S T U V W X Y Z