Kings Of Leon - Southbound tab

KoL's new song 'Southbound' from the newest unreleased and un-named album

Not sure if its right but sounds alright to me, worked out by listening to live versions of it.


Intro:

Gtr.2 Matthew
e|--7---7---7-----------------------------------------|
B|------------7---7---7-5---5---0---0---------0-------|
G|----7----7----7---7-----7---7---7-----5h6h7------x2-|
D|----------------------------------------------------|
A|----------------------------------------------------|
E|----------------------------------------------------|

(NO GUITAR)
Come on down and dance, 
If you get the chance, 
We're gonna steal on arrival. 
All I wanna know, 
Is how far you wanna go, 
Fighting for survival.

Gtr.1 Caleb (acoustic)
e|-3-3-3-3-3-3-3-3-3-3-3-3-3-3-3-3-3------------------|
B|-3-3-3-3-3-3-3-3-3-3-3-3-3-3-3-3-3------------------|
G|-------------------------------------------------x2-|
D|----------------------------------------------------|
A|-2-2-2-2-2-2-2-2-2-2-2-2-2-2-2-2-2------------------|
E|-3-3-3-3-3-3-3-3-3-3-3-3-3-3-3-3-3------------------|
 
Gtr.2 Matthew
e|--7---7---7-----------------------------------------|
B|------------7---7---7-5---5---0---0---------0-------|
G|----7----7----7---7-----7---7---7-----5h6h7------x6-|
D|----------------------------------------------------|
A|----------------------------------------------------|
E|----------------------------------------------------|

(ONLY MATTHEW KEEPS PLAYING)
Underneath the stars, 
Where we parked the cars,
Ain't showing signs of stopping. 
Pretty little girls, 
Naked to their curves, 
Ready to let the car run.

Gtr.1 Caleb (acoustic)
e|-3-3-3-3-3-3-3-3-3-3-3-3-3-3-3-3-3------------------|
B|-3-3-3-3-3-3-3-3-3-3-3-3-3-3-3-3-3------------------|
G|-------------------------------------------------x6-|
D|----------------------------------------------------|
A|-2-2-2-2-2-2-2-2-2-2-2-2-2-2-2-2-2------------------|
E|-3-3-3-3-3-3-3-3-3-3-3-3-3-3-3-3-3------------------|

(CALEB KEEPS PLAYING WITH MATTHEW STILL PLAYING THE INTRO RIFF)
If you wanna go,
I'm gonna go,
I gotta fire burning.
Come on take my hand, 
Hope you see your man, 
Baby's gonna be a weird one.

Gtr.1 Caleb (acoustic)keeps playing till the end from now
e|-3-3-3-3-3-3-3-3-3-3-3-3-3-3-3-3-3------------------|
B|-3-3-3-3-3-3-3-3-3-3-3-3-3-3-3-3-3------------------|
G|----------------------------------------------------|
D|----------------------------------------------------|
A|-2-2-2-2-2-2-2-2-2-2-2-2-2-2-2-2-2------------------|
E|-3-3-3-3-3-3-3-3-3-3-3-3-3-3-3-3-3------------------|

Baby's gonna be a weird one.

Gtr.2 Matthew 
e|-3-3-3-3-3-3-3-3-3-3-3-3-3-3-3-3-3-8--8--8--8--8--3-3-3-3-3-3-3-------|
B|-3-3-3-3-3-3-3-3-3-3-3-3-3-3-3-3-3-8--8--8--8--8--3-3-3-3-3-3-3-------|
G|-4-4-4-4-4-4-4-4-4-4-4-4-4-4-4-4-4-9--9--9--9--9--4-4-4-4-4-4-4----x2-|
D|-5-5-5-5-5-5-5-5-5-5-5-5-5-5-5-5-5-10-10-10-10-10-5-5-5-5-5-5-5-------|
A|-5-5-5-5-5-5-5-5-5-5-5-5-5-5-5-5-5-10-10-10-10-10-5-5-5-5-5-5-5-------|
E|-3-3-3-3-3-3-3-3-3-3-3-3-3-3-3-3-3-8--8--8--8--8--3-3-3-3-3-3-3-------|
 


(ONLY CALEB PLAYING)
If you see the lights, 
and we hear the fights, 
It's gonna be a stunner. 
I've got something here, 
If you give me one more beer, 
I'm gonna call a runner. 

Gtr.1 Caleb (acoustic)
e|-3-3-3-3-3-3-3-3-3-3-3-3-3-3-3-3-3------------------|
B|-3-3-3-3-3-3-3-3-3-3-3-3-3-3-3-3-3------------------|
G|----------------------------------------------------|
D|----------------------------------------------------|
A|-2-2-2-2-2-2-2-2-2-2-2-2-2-2-2-2-2------------------|
E|-3-3-3-3-3-3-3-3-3-3-3-3-3-3-3-3-3------------------|

Gtr.2 Matthew
e|--7---7---7-----------------------------------------|
B|------------7---7---7-5---5---0---0---------0-------|
G|----7----7----7---7-----7---7---7-----5h6h7------x2-|
D|----------------------------------------------------|
A|----------------------------------------------------|
E|----------------------------------------------------|

(CALEB PLAYING WITH MATTHEW PLAYING INTRO RIFF)
I don't want to say, 
What I have to say, 
If I'm a' kicking off now. 
If you wanna go, 
I'm gonna go, 
I'm going back down southbound.

 Gtr.1 Caleb (acoustic)
e|-3-3-3-3-3-3-3-3-3-3-3-3-3-3-3-3-3------------------|
B|-3-3-3-3-3-3-3-3-3-3-3-3-3-3-3-3-3------------------|
G|----------------------------------------------------|
D|----------------------------------------------------|
A|-2-2-2-2-2-2-2-2-2-2-2-2-2-2-2-2-2------------------|
E|-3-3-3-3-3-3-3-3-3-3-3-3-3-3-3-3-3------------------|

Gtr.2 Matthew 
e|-3-3-3-3-3-3-3-3-3-3-3-3-3-3-3-3-3-8--8--8--8--8--3-3-3-3-3-3-3-------|
B|-3-3-3-3-3-3-3-3-3-3-3-3-3-3-3-3-3-8--8--8--8--8--3-3-3-3-3-3-3-------|
G|-4-4-4-4-4-4-4-4-4-4-4-4-4-4-4-4-4-9--9--9--9--9--4-4-4-4-4-4-4----x2-|
D|-5-5-5-5-5-5-5-5-5-5-5-5-5-5-5-5-5-10-10-10-10-10-5-5-5-5-5-5-5-------|
A|-5-5-5-5-5-5-5-5-5-5-5-5-5-5-5-5-5-10-10-10-10-10-5-5-5-5-5-5-5-------|
E|-3-3-3-3-3-3-3-3-3-3-3-3-3-3-3-3-3-8--8--8--8--8--3-3-3-3-3-3-3-------|

I'm going back down southbound. 
I'm going back down southbound.

 Gtr.2 Matthew
e|--15--------------15-------------15-----------------|
B|------15--12----------15b17-----------15------------|
G|-------------------------------------------12-------|
D|----------------------------------------------------|
A|----------------------------------------------------|
E|----------------------------------------------------|

(NOT SURE WHAT MATTHEWS PLAYING HERE BUT CALEB STILL PLAYING THE G CHORD)
 If you wanna go, 
I'm going back down southbound. 
Go on take my hand, 
I'm going back down southbound.

Gtr.2 Matthew 
e|---------------------3-3-3-3-3-3-3-3-3-3-3-3-3-3-3-3-3-8--8--8--8--8--3-|
B|---------------------3-3-3-3-3-3-3-3-3-3-3-3-3-3-3-3-3-8--8--8--8--8--3-|
G|---------------------4-4-4-4-4-4-4-4-4-4-4-4-4-4-4-4-4-9--9--9--9--9--4-|
D|-7b8--7--5-----5-----5-5-5-5-5-5-5-5-5-5-5-5-5-5-5-5-5-10-10-10-10-10-5-|
A|------------7--------5-5-5-5-5-5-5-5-5-5-5-5-5-5-5-5-5-10-10-10-10-10-5-|
E|---------------------3-3-3-3-3-3-3-3-3-3-3-3-3-3-3-3-3-8--8--8--8--8--3-|

(MATTHEW AND CALEB)
Wait 'til you see the light, 
And we hear those fights, 
I'm going back down southbound. 
I don't want to know, 
How far you wanna go, 
I'm going back down southbound. 
I'm going back down southbound. 
I'm going back down southbound. 
I'm going back down southbound. 
I'm going back down southbound.

(MATTHEW ENDS ON)
Gtr.2 Matthew 
e|-3-3-3-3-3-3-3-3-3-3-3-3-3-3-3-3-3-8--8--8--8--8--3-3-3-3-3-3-3-------|
B|-3-3-3-3-3-3-3-3-3-3-3-3-3-3-3-3-3-8--8--8--8--8--3-3-3-3-3-3-3-------|
G|-4-4-4-4-4-4-4-4-4-4-4-4-4-4-4-4-4-9--9--9--9--9--4-4-4-4-4-4-4-------|
D|-5-5-5-5-5-5-5-5-5-5-5-5-5-5-5-5-5-10-10-10-10-10-5-5-5-5-5-5-5-------|
A|-5-5-5-5-5-5-5-5-5-5-5-5-5-5-5-5-5-10-10-10-10-10-5-5-5-5-5-5-5-------|
E|-3-3-3-3-3-3-3-3-3-3-3-3-3-3-3-3-3-8--8--8--8--8--3-3-3-3-3-3-3-------|
 
Oh, yeah. 
I'm going back down southbound.

(CALEB ENDS WITH A STRUM OF THE G CHORD HE PLAYS THROUGHOUT)
Tap to rate this tab
 
# A B C D E F G H I J K L M N O P Q R S T U V W X Y Z