Kings Of Leon - Radioactive tab

First single relaeased from KoL's new album 'come around sundown' out october 18th

Not 100% sure on matthews intro riff but sounds alright.

Listen to the song and you should get 

Intro:

Gtr.1 Caleb- plays this throughout the whole song except through verses
e|-------------------------------------------------------|
B|-------------------------------------------------------|
G|-------------------------------------------------------| 
D|-------------------------------------------------------|
A|-------------------------------------------------------|
E|--5s13-13-13-13-13-13-13-13-13-13-13-13-13-13-13-13-13-|


Gtr.2 Matthew-comes in after second time of intro
e|--15-15-13-13-15-15-13-13-17-13---------------------|
B|----------------------------------------------------|
G|----------------------------------------------------|
D|----------------------------------------------------|  x9
A|----------------------------------------------------|
E|----------------------------------------------------|



Verse:

Caleb doesnt play anything.

Gtr.2 Matthew
e|----------------------------------------------------|
B|----------------------------------------------------|
G|-10-7-10-10-7-5-7--7-5-7-7-5-2----------------------|
D|----------------------------------------------------| x4
A|----------------------------------------------------|
E|----------------------------------------------------|



Chorus:

Gtr.1 Caleb
e|-------------------------------------------------------|
B|-------------------------------------------------------|
G|-------------------------------------------------------| 
D|-------------------------------------------------------|
A|-------------------------------------------------------|
E|--5s13-13-13-13-13-13-13-13-13-13-13-13-13-13-13-13-13-|


Gtr.2 Matthew
e|--13-13-13-13-13-13-13-13-13-15-15------------------|
B|--13-13-13-13-13-13-13-13-13-13-13------------------|
G|----------------------------------------------------|
D|----------------------------------------------------|  x8
A|----------------------------------------------------|
E|----------------------------------------------------|

Then Matthew goes back to this during the 'wooo's 

Gtr.2 Matthew
e|--15-15-13-13-15-15-13-13-17-13---------------------|
B|----------------------------------------------------|
G|----------------------------------------------------|
D|----------------------------------------------------|  x4
A|----------------------------------------------------|
E|----------------------------------------------------|



Verse:

Caleb doesnt play anything.

Gtr.2 Matthew
e|----------------------------------------------------|
B|----------------------------------------------------|
G|-10-7-10-10-7-5-7--7-5-7-7-5-2----------------------|
D|----------------------------------------------------| x4
A|----------------------------------------------------|
E|----------------------------------------------------|



Chorus:

Gtr.1 Caleb
e|-------------------------------------------------------|
B|-------------------------------------------------------|
G|-------------------------------------------------------| 
D|-------------------------------------------------------|
A|-------------------------------------------------------|
E|--5s13-13-13-13-13-13-13-13-13-13-13-13-13-13-13-13-13-|


Gtr.2 Matthew
e|--13-13-13-13-13-13-13-13-13-15-15------------------|
B|--13-13-13-13-13-13-13-13-13-13-13------------------|
G|----------------------------------------------------|
D|----------------------------------------------------|  x16
A|----------------------------------------------------|
E|----------------------------------------------------|



Breakdown:

Gtr.1 Caleb
e|-------------------------------------------------------|
B|-------------------------------------------------------|
G|-------------------------------------------------------| 
D|-------------------------------------------------------|
A|-------------------------------------------------------|
E|--5s13-13-13-13-13-13-13-13-13-13-13-13-13-13-13-13-13-|


Gtr.2 Matthew- comes in after second time caleb plays his part
e|--15-15-13-13-15-15-13-13-17-13---------------------|
B|----------------------------------------------------|
G|----------------------------------------------------|
D|----------------------------------------------------|  x4
A|----------------------------------------------------|
E|----------------------------------------------------|



Verse:

Caleb doesnt play anything.

Gtr.2 Matthew
e|----------------------------------------------------|
B|----------------------------------------------------|
G|-10-7-10-10-7-5-7--7-5-7-7-5-2----------------------|
D|----------------------------------------------------| x4
A|----------------------------------------------------|
E|----------------------------------------------------|



Chorus:

Gtr.1 Caleb
e|-------------------------------------------------------|
B|-------------------------------------------------------|
G|-------------------------------------------------------| 
D|-------------------------------------------------------|
A|-------------------------------------------------------|
E|--5s13-13-13-13-13-13-13-13-13-13-13-13-13-13-13-13-13-|


Gtr.2 Matthew
e|--13-13-13-13-13-13-13-13-13-15-15------------------|
B|--13-13-13-13-13-13-13-13-13-13-13------------------|
G|----------------------------------------------------|
D|----------------------------------------------------|  x16
A|----------------------------------------------------|
E|----------------------------------------------------|

then Matthew stops and Caleb plays his part four times and then he comes back in.

Gtr.2 Matthew
e|--13-13-13-13-13-13-13-13-13-15-15------------------|
B|--13-13-13-13-13-13-13-13-13-13-13------------------|
G|----------------------------------------------------|
D|----------------------------------------------------|  x8
A|----------------------------------------------------|
E|----------------------------------------------------|

Gtr.1 Caleb- ends by caleb playing this twice on his own
e|---------------------------------------------------------|
B|---------------------------------------------------------|
G|---------------------------------------------------------| 
D|---------------------------------------------------------|
A|---------------------------------------------------------|
E|--5s13-13-13-13-13-13-13-13-13-13-13-13-13-13-13-13-13-s5|
Tap to rate this tab
 
# A B C D E F G H I J K L M N O P Q R S T U V W X Y Z