Kings Of Leon - Four Kicks tab

(12)= natural harmonics

With thanks to danlr22's tab for basic layout:

Intro

E|-------------------------------------------|
B|-------------------------------------------|
G|-------------------------------------------|
D|-2-5-7-5--2-5-7-5--2-5-7-5--12121212121212-|
A|-2-5-7-5--2-5-7-5--2-5-7-5--12121212121212-|
E|-0-3-5-3--0-3-5-3--0-3-5-3--10101010101010-|

E|-------------------------------------------------|
B|-------------------------------------------------|
G|--------------------------------------------(12)-|
D|-2-5-7-5--2-5-7-5--2-5-7-5--12121212121212--(12)-|
A|-2-5-7-5--2-5-7-5--2-5-7-5--12121212121212--(12)-|
E|-0-3-5-3--0-3-5-3--0-3-5-3--10101010101010--(12)-|

Verse - Silence during vocals;

E|------------------(12)-----------------------------------------------(12)----------------------|
B|------------------(12)-----------------------------------------------(12)----------------------|
G|------------------(12)---------------------(12)----------------------(12)----------------------|
D|-2-5-7-5--2-5-7-5-(12)---2-5-7-5--2-5-7-5--(12)----2-5-7-5--2-5-7-5--(12)----2-5-7-5--2-5-7-5\-|
A|-2-5-7-5--2-5-7-5-(12)---2-5-7-5--2-5-7-5--(12)----2-5-7-5--2-5-7-5--(12)----2-5-7-5--2-5-7-5\-|
E|-0-3-5-3--0-3-5-3-(12)---0-3-5-3--0-3-5-3--(12)----0-3-5-3--0-5-3-5--(12)----0-3-5-3--0-3-5-3\-|

Chorus - Strum each powerchord once.

E|------------------------------------|
B|------------------------------------|
G|------------------------------------|
D|-3----------8----------3----------8-| x1
A|-3----------8----------3----------8-|
E|-1----------6----------1----------6-|

Repeat Intro

Repeat Verse

Repeat Chorus

Bridge - Same as Intro, minus harmonics at the end:

E|-------------------------------------------|
B|-------------------------------------------|
G|-------------------------------------------|
D|-2-5-7-5--2-5-7-5--2-5-7-5--12121212121212-|
A|-2-5-7-5--2-5-7-5--2-5-7-5--12121212121212-|
E|-0-3-5-3--0-3-5-3--0-3-5-3--10101010101010-|

E|---------------------------------------------|
B|---------------------------------------------|
G|---------------------------------------------|
D|-2-5-7-5--2-5-7-5--2-5-7-5--12121212121212---|
A|-2-5-7-5--2-5-7-5--2-5-7-5--12121212121212---|
E|-0-3-5-3--0-3-5-3--0-3-5-3--10101010101010---|

Solo ***Solo Credited to danlr22***

E|-------------------------------------------------------------|
B|------------------3b--8-10-8-10-8-10-8-10-8-10b-8-10---------|
G|-0-2b-0-2b-0-2b-0--------------------------------------------|
D|-------------------------------------------------------------|
A|-------------------------------------------------------------|
E|-------------------------------------------------------------|

 --------------------------15-1212----------------------------|
 --15-12-15-12-15-12-15-12------1515-12----12-----------------|
 ----------------------------------------14----14-12-14b-12-14-|
 --------------------------------------------------------------|
 --------------------------------------------------------------|
 --------------------------------------------------------------|

Final Chorus

E|--------------------------------------|
B|--------------------------------------|
G|--------------------------------------|
D|-3----------8----------3----------8~\-| x1
A|-3----------8----------3----------8~\-|
E|-1----------6----------1----------6~\-|

*End*
Tap to rate this tab
 
# A B C D E F G H I J K L M N O P Q R S T U V W X Y Z