Kings Of Leon - Pickup Truck tab

New song that will be on the new album out in october.

listen to the song and its simple

Intro:

Gtr.2 Matthew
e|--12s-8------------------------------------------------|
B|-------------------------------------------------------|
G|-------------------------------------------------------| 
D|-------------------------------------------------------| x7
A|-------------------------------------------------------|
E|-------------------------------------------------------|


Gtr.1 Caleb - comes in after matthews 6th time.
e|----0-----0--------------------------------------------|
B|------1-----1------------------------------------------|
G|--------2----------------------------------------------|
D|-------------------------------------------------------| x4
A|--3-----------3-3--3-----------------------------------|
E|-------------------------------------------------------|

Verse:


Gtr.1 Caleb
e|------0-------0-----0----------------------------------|
B|--------1---1---1-----1---1----------------------------|
G|----------2-------2-----2------------------------------| 
D|-------------------------------------------------------| x20
A|--3-3--------------------------------------------------|
E|-------------------------------------------------------|


Gtr.2 Matthew - comes back in with intro riff half way through verse
e|--12s-8------------------------------------------------|
B|-------------------------------------------------------|
G|-------------------------------------------------------|
D|-------------------------------------------------------| x2
A|-------------------------------------------------------|
E|-------------------------------------------------------|

Chorus:


Gtr.1 Caleb
e|--0-0-0-0-0-0-0-0--0-----------------------------------|
B|--1-1-1-1-1-1-1-1--1-----------------------------------|
G|--2-2-2-2-2-2-0-0--0-----------------------------------| 
D|--3-3-3-3-3-3-2-2--2-----------------------------------| x8
A|--------------3-3--3-----------------------------------|
E|-------------------------------------------------------|


Gtr.2 Matthew
e|--5-5-5-5-5-5-5-5-5-5-5-5-5-5-5-5-5-5------------------|
B|--0-0-0-0-0-0-0-0-0-0-0-0-0-0-0-0-0-0------------------|
G|-------------------------------------------------------|
D|-------------------------------------------------------| x8
A|-------------------------------------------------------|
E|-------------------------------------------------------|

Gtr.1 Caleb
e|------0-------0-----0----------------------------------|
B|--------1---1---1-----1---1----------------------------|
G|----------2-------2-----2------------------------------| 
D|-------------------------------------------------------| x20
A|--3-3--------------------------------------------------|
E|-------------------------------------------------------|

Gtr.2 Matthew
e|-------------------------------------------------------|
B|-------------------------------------------------------|
G|-----10-9~---------------9-----------------------------|
D|--10------------12-10~-----10--------------------------| x2
A|-------------10----------------------------------------|
E|-------------------------------------------------------|

Verse:


Gtr.1 Caleb
e|------0-------0-----0----------------------------------|
B|--------1---1---1-----1---1----------------------------|
G|----------2-------2-----2------------------------------| 
D|-------------------------------------------------------| x12
A|--3-3--------------------------------------------------|
E|-------------------------------------------------------|


Gtr.2 Matthew - doesnt play anything.
e|-------------------------------------------------------|
B|-------------------------------------------------------|
G|-------------------------------------------------------|
D|-------------------------------------------------------| 
A|-------------------------------------------------------|
E|-------------------------------------------------------|

Chorus:


Gtr.1 Caleb
e|--0-0-0-0-0-0-0-0--0-----------------------------------|
B|--1-1-1-1-1-1-1-1--1-----------------------------------|
G|--2-2-2-2-2-2-0-0--0-----------------------------------| 
D|--3-3-3-3-3-3-2-2--2-----------------------------------| x12
A|--------------3-3--3-----------------------------------|
E|-------------------------------------------------------|


Gtr.2 Matthew
e|--5-5-5-5-5-5-5-5-5-5-5-5-5-5-5-5-5-5------------------|
B|--0-0-0-0-0-0-0-0-0-0-0-0-0-0-0-0-0-0------------------|
G|-------------------------------------------------------|
D|-------------------------------------------------------| x8
A|-------------------------------------------------------|
E|-------------------------------------------------------|

Breakdown:


Gtr.1 Caleb - still playing from the chorus.
e|--0-0-0-0-0-0-0-0--0-----------------------------------|
B|--1-1-1-1-1-1-1-1--1-----------------------------------|
G|--2-2-2-2-2-2-0-0--0-----------------------------------| 
D|--3-3-3-3-3-3-2-2--2-----------------------------------| 
A|--------------3-3--3-----------------------------------|
E|-------------------------------------------------------|


Gtr.2 Matthew
e|-------------------------------------------------------|
B|-------------------------------------------------------|
G|-----10-9~---------------9-----------------------------|
D|--10------------12-10~-----10--------------------------| x2
A|-------------10----------------------------------------|
E|-------------------------------------------------------|

Gtr.1 Caleb
e|------0-------0-----0----------------------------------|
B|--------1---1---1-----1---1----------------------------|
G|----------2-------2-----2------------------------------| 
D|-------------------------------------------------------| x12
A|--3-3--------------------------------------------------|
E|-------------------------------------------------------|

Gtr.2 Matthew
e|-------------------------------------------------------|
B|-------------------------------------------------------|
G|--9----------------------------------------------------|
D|----10-10s12-------------------------------------------| x1
A|-------------------------------------------------------|
E|-------------------------------------------------------|

Gtr.2 Matthew - plays this part again 
e|-------------------------------------------------------|
B|-------------------------------------------------------|
G|-----10-9~---------------9-----------------------------|
D|--10------------12-10~-----10--------------------------| x10
A|-------------10----------------------------------------|
E|-------------------------------------------------------|

Chorus:


Gtr.1 Caleb - after 4 times of matt playing that riff caleb comes in with the chorus.
e|--0-0-0-0-0-0-0-0--0-----------------------------------|
B|--1-1-1-1-1-1-1-1--1-----------------------------------|
G|--2-2-2-2-2-2-0-0--0-----------------------------------| 
D|--3-3-3-3-3-3-2-2--2-----------------------------------| x12
A|--------------3-3--3-----------------------------------|
E|-------------------------------------------------------|

Gtr.2 Matthew - matt ends with 
e|-------------------------------------------------------|
B|-------------------------------------------------------|
G|-----10-9~---------------9-----------------------------|
D|--10------------12-10~-----10-10s12--------------------| 
A|-------------10----------------------------------------|
E|-------------------------------------------------------|

Outro:


Gtr.1 Caleb 
e|----0-----0--------------------------------------------|
B|------1-----1------------------------------------------|
G|--------2----------------------------------------------|
D|-------------------------------------------------------| x4
A|--3-----------3-3--3-----------------------------------|
E|-------------------------------------------------------|
Tap to rate this tab
 
# A B C D E F G H I J K L M N O P Q R S T U V W X Y Z