Song name
# A B C D E F G H I J K L M N O P Q R S T U V W X Y Z

Kings Of Leon - Pyro tab

-------------------------------------------------------------------------------
			     Pyro  Kings of Leon
-------------------------------------------------------------------------------
Tabbed by: Panshoe_ 89
Email:fandrade890628@gmail.com
You can figure out the picking timing
Tuning: Standard

e|---------------------------------------------------------------------------|
B|---------4-------4-------4----------4----------4----------4----------4-----|
G|----4-----4--4----4--4-----4---4-----4----6------6---6------6---6------6---|
D|--2---2----2---2---2---2-----2---2------6---6------6---6------6---6------6-|
A|---------------------------------------------------------------------------|
E|---------------------------------------------------------------------------|

e|------------------------------------------------------------------------------|
B|--------4---------------------------------------------------------------------|
G|---6------6-------------------------------------------------------------------|
D|-----6--------------------and repeat------------------------------------------|
A|------------------------------------------------------------------------------|
E|------------------------------------------------------------------------------|
Tap to rate this tab
 
# A B C D E F G H I J K L M N O P Q R S T U V W X Y Z