Song name
# A B C D E F G H I J K L M N O P Q R S T U V W X Y Z

Kings Of Leon - The Face tab

-----------------------------------------------------------------------------
			     THE FACE - Kings Of Leon
-----------------------------------------------------------------------------

Album: Come Around Sundown
Tabbed by: jamesmckee92

(0.00 - 0.12) INTRO LEAD:
e|----9-12--4-----------9--12--4----4-----|
B|-10--------5------10-------------5------|
G|--------------------------------6-------|
D|----------------------------------------|
A|----------------------------------------|
E|----------------------------------------|


Repeat the following from (0.13 - 0.26)
e|-----------9--------------|
B|-9H10P9H10----------------|
G|--------------------------|
D|--------------------------|
A|--------------------------|
E|--------------------------|
Tap to rate this tab
 
# A B C D E F G H I J K L M N O P Q R S T U V W X Y Z