Kings Of Leon - Use Somebody Acoustic tab

-------------------------------------------------------------------------------
			     Use Somebody - Kings of Leon
-------------------------------------------------------------------------------

Tabbed by: Josh Nurse
Email: Jur5ey@hotmail.co.uk

Tuning: Standered (EADGBe)

Acoustic Guitar


E||----------3---0----|----------3---0----|----------1--------|----------1--------|
B||------1------------|------1------------|------1-------1----|------1-------1----|
G||----0---0---0---0--|----0---0---0---0--|----2---2---2---2--|----2---2---2---2--|
D||-------------------|-------------------|-------------------|-------------------|
A||--3----------------|--3----------------|--3----------------|--3----------------|
E||-------------------|-------------------|-------------------|-------------------|

E||----------3---0----|----------3---0----|----------1--------|----------1--------|
B||------1------------|------1------------|------1-------1----|------1-------1----|
G||----0---0---0---0--|----0---0---0---0--|----2---2---2---2--|----2---2---2---2--|
D||-------------------|-------------------|-------------------|-------------------|
A||--3----------------|--3----------------|--3----------------|--3----------------|
E||-------------------|-------------------|-------------------|-------------------|

E||----------3---0----|----------3---0----|----------1--------|----------1--------|
B||------1------------|------1------------|------1-------1----|------1-------1----|
G||----2---2---2---2--|----0---0---0---0--|----2---2---2---2--|----2---2---2---2--|
D||-------------------|-------------------|-------------------|-------------------|
A||--0----------------|--3----------------|--3----------------|--3----------------|
E||-------------------|-------------------|-------------------|-------------------|

E||----------3---0----|----------3---0----|----------1--------|----------1--------|
B||------1------------|------1------------|------1-------1----|------1-------1----|
G||----2---2---2---2--|----0---0---0---0--|----2---2---2---2--|----2---2---2---2--|
D||-------------------|-------------------|-------------------|-------------------|
A||--0----------------|--3----------------|--3----------------|--3----------------|
E||-------------------|-------------------|-------------------|-------------------|
Tap to rate this tab
 
# A B C D E F G H I J K L M N O P Q R S T U V W X Y Z