Kings Of Leon - Immortals tab

Tuning : Standard

Intro :

Guitar 1
e|--7---7---7-7----7---7---7----7---7---7-7----7---7---|
B|----9---9----------9---9--------9---9----------9---9-|
G|-----------------------------------------------------|
D|-----------------------------------------------------|
A|-----------------------------------------------------|
E|-----------------------------------------------------|

Verse :

Now the delay kicks in to get that echoing effect.

e|-----------11-----------------11---------------------|
B|--9--------12--------9--------12---------------------|
G|--9------------------9-------------------------------|
D|-----------------------------------------------------|
A|-----------------------------------------------------|
E|-----------------------------------------------------|

The open road
The path of greatness
Itīs at your fingers
Go be the one that keeps on fighting
Go be the stranger

e|-----------------------------------------------------|
B|--9-------10----12----9-------10----12---------------|
G|--9--------9-----9----9--------9-----9---------------|
D|-----------------------------------------------------|
A|-----------------------------------------------------|
E|-----------------------------------------------------|

Just put your foot in front the other
Crow like the rooster
Be all and all
Together something
Fear's a danger
I say

Chorus :

Keep the delay for depth, but add some distortion.

e|-----------------------------------------------------|
B|--5(16x)--7(8x)--9(8x)--4(16x)--0(16x)---------------|
G|-----------------------------------------------------|
D|-----------------------------------------------------|
A|-----------------------------------------------------|
E|-----------------------------------------------------|


If you want to mix it up, you can also play the bass riff :

e|-----------------------------------------------------|
B|-----------------------------------------------------|
G|-----------------------------------------------------|
D|--9h11--7h9--6h7--4h6--2h4--1(8x)--2(8x)-------------|
A|-----------------------------------------------------|
E|-----------------------------------------------------|

Spill out on the streets of stars
Ride away
Find out what you are
Face to face

Repeat verse (you'll figure it out)

The windows are the perfect picture
They're always changing
Go on get lost, jump in the waters
When they are raging
I say

Chorus

Spill out on the streets of stars
Ride away
Find out what you are
Face to face
Once you've had enough
Carry on
Don't forget to love
Before you've gone

Repeat verse (again, you'll figure what chords to hit when)

Solo :

e|---------------------------------------------------------|
B|--5(16x)--7(8x)--9(8x)--4(16x)--0(16x)-------------------|
G|---------------------------------------------------------|  4x
D|---------------------------------------------------------|
A|---------------------------------------------------------|
E|---------------------------------------------------------|

e|------------------------------------------------------|
B|--12h14--12h14--12----14b-(14)----12h14--12h14--12----|
G|-------------------13----------13------------------13-|
D|------------------------------------------------------|
A|------------------------------------------------------|
E|------------------------------------------------------|

e|-----------------------------------------------------|
B|-----------------------------------------------------|
G|--(13)-11-(11)---------------------------------------|
D|-----------------------------------------------------|
A|-----------------------------------------------------|
E|-----------------------------------------------------|


e|------------------------------------------------------|
B|--12h14--12h14--12----14b-(14)----12h14--12h14--12----|
G|-------------------13----------13------------------13-|
D|------------------------------------------------------|
A|------------------------------------------------------|
E|------------------------------------------------------|

e|-----------------------------------------------------|
B|-----------------------------------------------------|
G|--11--13--9------------------------------------------|
D|-----------------------------------------------------|
A|-----------------------------------------------------|
E|-----------------------------------------------------|


Spill out on the streets of stars
Ride away
Find out what you are
Face to face
Once you've had enough
Carry on
Don't forget to love
Before you've gone


And that's it ! Not too tough, right ? But a pretty damn powerful song!
I'll try to figure out the 2nd guitar part asap!

Cheers.
Tap to rate this tab
 
# A B C D E F G H I J K L M N O P Q R S T U V W X Y Z