Kings Of Leon - No Money tab

Kings of Leon - No Money Intro

This is what I've scrapped together so far...
e|-------------------|
B|-------------------|
G|-------------------|
D|-------------------|
A|--2--4-------------|
E|---------4~~~~~----|

e|-----------------------------------|
B|-----------------------------------|
G|-----------------------------------|
D|-----------------------------------|
A|--2--4-----------------------------|
E|---------000000000000000000000etc.-|

e|-----------------------------------|
B|-----------------------------------|
G|-----------------------------------|
D|-----------------------------------|
A|--2--4-----------------------------|
E|--------4444444444444444444444etc.-|

e|-----------------|
B|-----------------|
G|-----------------|
D|-----------------|
A|--2--4--2~~~~~---|
E|--------0~~~~~---|

e|-----------------|
B|-----------------|
G|-----------------|
D|--4--6-----------|
A|--2--4--6~~~~~---|
E|--------4~~~~~---|

e|-----------------|
B|-----------------|
G|-----------------|
D|--4--6-----------|
A|--2--4--2~~~~~---|
E|--------0~~~~~---|

BlocPartyFreak
Tap to rate this tab
 
# A B C D E F G H I J K L M N O P Q R S T U V W X Y Z