Song name
# A B C D E F G H I J K L M N O P Q R S T U V W X Y Z

Kings Of Leon - Mi Amigo tab

Kings of Leon - Come around Sundown
Mi Amigo

         TABBED BY: Nick Hertzberg

My first tab but been reading tabs for years
Saw some tabs but lacking the intro


     Ive got a friend...........Shows me all the good times
E------------------------------------------------------|
B------------------------------------------------------|
G---7-------------7-----------7--5--7--4---------------|
D---7------5------7-----------7--5--7--5---------------|
A-5----5H7----7S9-------------9--7--5--5---------------|
E--------------------------------------3---------------|

E-------------------------------------------|
B-------------------------------------------|
G--4-4------3-33----------------------------|
D--5-5------5-55----------------------------|
A--5-5------5-55----------------------------|
E--3-3--0H3-3-33----------------------------|
Tap to rate this tab
 
# A B C D E F G H I J K L M N O P Q R S T U V W X Y Z