Song name
# A B C D E F G H I J K L M N O P Q R S T U V W X Y Z

Kings Of Leon - The Face tab

-----9-12------------9-12----------------------|
-10-------9------10-------9--------------------|
------------9----------------------------------|
-----------------------------------------------|
-----------------------------------------------|
-----------------------------------------------|

--------------9-9----------------9-9-----------|
-10-9-10-9-10-------10-9-10-9-10---------------|
-----------------------------------------------|
-----------------------------------------------|
-----------------------------------------------|
-----------------------------------------------|
the times you need, just listen to the song
Tap to rate this tab
 
# A B C D E F G H I J K L M N O P Q R S T U V W X Y Z