Kings Of Leon - The Face tab

Kings of Leon
"The Face"
Come Around Sundown
2010


INTRO: (MATTHEW)


E|-------9v--12\4v-------------9v--12\4v----4~-|
B|-10v--------------5v---10v---------------5~--|
G|----------------------------------------6~---|
D|---------------------------------------------|
A|---------------------------------------------|
E|---------------------------------------------|



E|-------------9---9-|
B|-10-9-10-9-10--10--|
G|-------------------|   <--- (Play 8 Times)
D|-------------------|
A|-------------------|
E|-------------------|



E|--------------9-9-\0-|
B|-10-9-10-9-10---10---|
G|---------------------|    <---  (9th Time play this)
D|---------------------|
A|---------------------|
E|---------------------|


VERSE: (CALEB)


E|-----------------------------------------------------|
B|-----------------------------------------------------|
G|-----------------------------------------------------|
D|-7-----4-----12-12-12-----12-12\11-11-11-----11-11\7-|
A|-7-----4-----12-12-12-----12-12\11-11-11-----11-11\7-|
E|-5-----2-----10-10-10-----10-10\9--9--9------9--9-\5-|


VERSE: (MATTHEW)


E|-----------2------9-------4~----|
B|---2------2------10------5~-----|
G|--2------2------11------6~------|
D|-2------------------------------|
A|--------------------------------|
E|--------------------------------|



E|-------9v--12\4v-------------9v--12\4v----4~-|
B|-10v--------------5v---10v---------------5~--|
G|----------------------------------------6~---|
D|---------------------------------------------|
A|---------------------------------------------|
E|---------------------------------------------|



E|-----------2------9----12----4~-----|
B|---2------2------10---------5~------|
G|--2------2------11---------6~-------|    <--- (Play twice)
D|-2----------------------------------|
A|------------------------------------|
E|------------------------------------|



E|----------9--9--9------------9--9------|
B|----------10-10-10-9-9-------10-10-9-9-|
G|---------------------------------------|
D|---------------------------------------|
A|-12-12-12--------------12-12-----------|
E|---------------------------------------|



E|-----------9--9--9----------9--9------|
B|-----------10-10-10-9-9-----10-10-9-9-|
G|-9-9----------------------------------|
D|--------------------------------------|
A|-----9-9-9--------------9-9-----------|
E|--------------------------------------|



E|--------------9--9--9------------9--9------|
B|--------------10-10-10-9-9-------10-10-9-9-|
G|-9-9---------------------------------------|
D|-----12-12-12--------------12-12-----------|
A|-------------------------------------------|
E|-------------------------------------------|



E|--------------9--9--9------------9--9----------|
B|--------------10-10-10-9-9-------10-10-9-9-----|
G|-9-9---------------------------------------9-9-|
D|-----11-11-11--------------11-11---------------|
A|-----------------------------------------------|
E|-----------------------------------------------|



E|-------9v--12\4v-------------9v--12\4v----4~-|
B|-10v--------------5v---10v---------------5~--|
G|----------------------------------------6~---|
D|---------------------------------------------|
A|---------------------------------------------|
E|---------------------------------------------|


PRE-BRIDGE: (CALEB)


E|-5-|
B|-5-|
G|-6-|
D|-7-|  <---  (Strum this chord many, many times)
A|---|
E|---|


PRE-BRIDGE: (MATTHEW)


E|-10--9v---------|
B|---------10--9v-|
G|----------------|
D|----------------|
A|----------------|
E|----------------|



E|-12--9v--14--9v---------|
B|-----------------10--9v-|
G|------------------------|
D|------------------------|
A|------------------------|
E|------------------------|


BRIDGE: (CALEB)


E|-9--|
B|-10-|
G|----|
D|----|   <---  (Strum this chord until 2:50 then play intro riff)
A|----|
E|----|


BRIDGE: (MATTHEW)

"RIDE OUT THE WAVE"

E|-19--21v-21v-21v-21v-21v-21v-21v-21v-|
B|-------------------------------------|
G|-------------------------------------|   <---  (Play 4 times)
D|-------------------------------------|
A|-------------------------------------|
E|-------------------------------------|



E|-9v-9v-9v---9v-9v-9v---14-9v-9v-9v---12-9v-9v-9v-|
B|-------------------------------------------------|
G|-------------------------------------------------|
D|-------------------------------------------------|
A|-------------------------------------------------|
E|-------------------------------------------------|

"THE ONE AND ONLY FACE"

E|-14v--10-9v-----------10-9v-----------12-9v---14-9v-|
B|--------------10-9v-----------10-9v-----------------|
G|----------------------------------------------------|
D|----------------------------------------------------|
A|----------------------------------------------------|
E|----------------------------------------------------|



E|---------19v--21~---|
B|-10-9v--------------|
G|--------------------|
D|--------------------|
A|--------------------|
E|--------------------|


OUTRO: (MATTHEW)


E|-------9v--12\4v-------------9v--12\4v----------4~---|
B|-10v--------------5v---10v--------------5v-----5~----|
G|-------------------------------------------6--6~-----|
D|-----------------------------------------------------|
A|-----------------------------------------------------|
E|-----------------------------------------------------|



(\) Slide Down 
(v) Vibrato
 ~  let ring

Best song on the album!
I worked this tab out myself, it seems sweet as!
If you see any mistakes please leave a comment and rate my tab.
Also check out my other guitar tabs like RHCP - Cabron (Ver 4). Cheers! Paul.
Tap to rate this tab
 
# A B C D E F G H I J K L M N O P Q R S T U V W X Y Z