Kings Of Leon - Trani tab

Intro:

e---------0-----------------------------------------|
b--9b(10)---(10)r9----------------------------------|
g---------------------------------------------------|  x8
d---------------------------------------------------|
a---------------------------------------------------|
E---------------------------------------------------|

Chorus:

e----0------0------0------0-------0------0-------0------0-------|
b-2-----2/5----5/7----7-5-----2/5----2/5----5---9b(10)-(10)r9---|
g---------------------------------------------------------------|  x3
d---------------------------------------------------------------|
a---------------------------------------------------------------|
E---------------------------------------------------------------|

Solo:

e-----------3----------------------------------------------------|
b--3/5-5-5----5--5-3--------5-3-5--------------------------------|
g--------------------4--2-4----------------1-4-------------------|
d---------------------------------------2------4-2--------2------|
a-----------------------------------2/4------------4--2-4---4----|
E----------------------------------------------------------------|


e---------------------------------------------------|
b---------------------------------------------------|
g--2b(3)(3)(3)(3)(3)(3)(3)(3)(3)-2-0---0------------| x2
d------------------------------------2--------------|
a---------------------------------------------------|
E---------------------------------------------------|

e----------9------------9----12b(14)-9--12b(14)--12b(14)-|
b--9-------9----9-------9--------------------------------|
g--11b(13)------11b(13)----------------------------------|
d--------------------------------------------------------|
a--------------------------------------------------------|
E--------------------------------------------------------|

e--9----9-----------12----12--14b(16)-14b(16)-14b(16)-14b(16)-|
b----12---12--12/14----14-------------------------------------|
g-------------------------------------------------------------|
d-------------------------------------------------------------|
a-------------------------------------------------------------|
E-------------------------------------------------------------|

e--12----------12----12-----------------------------|
b-----15b(17)-----15----15----12--------------------|
g--------------------------14----14--12-------------|
d---------------------------------------------------|
a---------------------------------------------------|
E---------------------------------------------------|

e--9-------------9------9---------------------------|
a--12b(14)-x3----12-x3--12b(14)-x6------------------|
g---------------------------------------------------|
d---------------------------------------------------|
a---------------------------------------------------|
E---------------------------------------------------|

Outro:

e--0----------------------------0-------------------|
b--9b(10)-(strums many times)--(10)r9-x3------------|
g---------------------------------------------------|
d---------------------------------------------------|
a---------------------------------------------------|
E---------------------------------------------------|

The live version outro is slightly different at the end of this riff each time he plays 
the b string on the 7th fret.

Tabbed by Luke :)

Enjoy, Please rate and comment!!!
Tap to rate this tab
 
# A B C D E F G H I J K L M N O P Q R S T U V W X Y Z