Song name
# A B C D E F G H I J K L M N O P Q R S T U V W X Y Z

Kings Of Leon - Dusty tab

-----------------------------------------------------------------------------
			     DUSTY - Kings of Leon
-----------------------------------------------------------------------------
Tabbed by:jamesmckee92
Tuning: standard

http://www.youtube.com/watch?v=LsHKFaeENWM

RHYTHM: INTRO & VERSES

   E E   G G G
e|-0-0---0-0-0------------------------------|
B|-0-0---0-0-0------------------------------|
G|-1-1---4-4-4------------------------------|
D|-2-2---5-5-5------------------------------|
A|-2-2---5-5-5------------------------------|
E|-0-0---X-X-X------------------------------|

LEAD: Starts 0.29s
e|--------12~---------------------|
B|--10b12----br10--9~-------------|
G|--------------------------------|
D|--------------------------------|
A|--------------------------------|
E|--------------------------------|

LEAD: Starts 1.25s  THE REST OF THE LEAD IN THE SONG VARIES ON THE NOTES I HAVE 
GIVEN HERE, BE CREATIVE AND LISTEN TO VIDEO.
e|--------------------------------------------|
B|--8~~----------8-10~~----10-8---------------|
G|------------------------------9-7b9---------|
D|--------------------------------------------|
A|--------------------------------------------|
E|--------------------------------------------|

BASS (as played on guitar): Starts 1.42
e|---------------------------------|
B|---------------------------------|
G|---------------------------------|
D|---------------------------------|
A|---------------------------------|
E|---0-0-3s7-10-3-3-3-3------------|

Intro
E G E (x4)


Verse 1
E	      G    E              G
Dusty and you are, dirty from chain
E		 G  E 		         G
Lips of your kisses are sticking like tape
E                G   E             G
Woke you at sunrise, cold as a grave
E		       G   E                 G
I'll cut you some flowers, now don't be afraid
E                 G
Now don't be afraid

Verse 2
E               G  E                  G
Home by the river, tall grass and fields 
E		G   E              G
Pond of willow oak, well for to kneel
E	    G  E               G
dusty o dusty, this is your night, 
E		 G  E			G
You'll be so pretty,all laced up in white 
E                G
All laced in white

CHORUS:

A									    
I'm looking for something, just sink in my teeth without any crying

E G E   E G

A
But I can't find no place or nothing, where thrills are cheap and love is divine

E G E   E G

OUTRO:

All chords played in the "E" shape
e|-0---0-----0------------------------|
B|-0---0-----0------------------------|
G|-8---6-----1------------------------|
D|-9---7-----2------------------------|
A|-9---7-----2------------------------|
E|-x---x-----0------------------------|


      B               A         E
Where thrills are cheap, and love's divine [x5]


************************************

| /   slide up
| \   slide down
| h   hammer-on
| p   pull-off
| ~   vibrato
| +   harmonic
| x   Mute note
| b   Bend
| pb  Pre-bend
| br  Bend release
| pbr Pre-bend release
| brb Bend release bend

************************************
Tap to rate this tab
 
# A B C D E F G H I J K L M N O P Q R S T U V W X Y Z