Kings Of Leon - The End tab

Kings of Leon
Come Around Sundown
The End

Standard Tuning
/ slide up
\ slide down
s slide
~ let ring
h hammer on
t tremolo
k kill note (mute)
b bend
r release

[INTRO]

  Jared bass
G|----------------------------------|
D|----------------------------------| \ plays
A|-----9-----9---------9-----9-9s11-| / twice
E|-7-7---7-7---7-7-7-7---7-7--------|

G|--------------------------------------------------|
D|--------------------------------------------------| \ plays
A|-------13-------13-------------13-------13-13-13\-| / twice
E|-11-11----11-11----11-11-11-11----11-11-----------|

  Matthew left guitar
e|---------------------------------------------------|
B|-2h4-4s7-4s11~-------------------------------------|
G|---------------------------------------------------|
D|---------------------------------------------------|
A|---------------------------------------------------|
E|---------------------------------------------------|

  Chris Coleman tremolo background guitar
e|---------------------------------------------------|
B|-4t/12t-11t----------------------------------------|
G|---------------------------------------------------|
D|------------13t\-----------------------------------|
A|---------------------------------------------------|
E|---------------------------------------------------|

[VERSE]

  Jared bass
G|---------------------------------------------------|
D|---------------------------------------------------|
A|-------9-----9---------------9-----9---------------|
E|-2s7-7---7-7---7-7k----2s7-7---7-7---7-7k----------|

G|----------------------------------------------------------|
D|----------------------------------------------------------|
A|---------13-------13-------------------13-------13--------|
E|-7s11-11----11-11----11-11k----7s11-11----11-11----11-11k-|

  Caleb right guitar
  He plays this right before chorus
   This     could be the  end (switches chord on this, could and the)
e|----------------------------------------------------------|
B|----------------------------------------------------------|
G|----------------------------------------------------------|
D|-13-------11-------9--------------------------------------|
A|-13-------11-------9--------------------------------------|
E|-11-------9--------7--------------------------------------|

[BRIDGE]

  Jared bass
G|--------------------------|
D|--------------------------|
A|------9---------9-----11\-|
E|-7-------/11--------------|

  Caleb guitar
e|--------------------------|
B|--------------------------|
G|--------------------------|
D|-9-------9s13---13s14-14\-|
A|-9-------9s13---13s14-14\-|
E|-7-------7s11---11s12-12\-|

[CHORUS]

  Jared bass
G|----------------------------------|
D|----------------------------------| \ plays
A|-----9-----9---------9-----9-9s11-| / twice
E|-7-7---7-7---7-7-7-7---7-7--------|

G|--------------------------------------------------|
D|--------------------------------------------------| \ plays
A|-------13-------13-------------13-------13-13-13\-| / twice
E|-11-11----11-11----11-11-11-11----11-11-----------|

  Chris Coleman tremolo background guitar
e|---------------------------------------------------|
B|-4t/12t-11t----------------------------------------|
G|---------------------------------------------------|
D|------------13t\-----------------------------------|
A|---------------------------------------------------|
E|---------------------------------------------------|

  Matthew left guitar
e|---------------------------------------------------|
B|-2h4-4s7-4s11~-------------------------------------|
G|---------------------------------------------------|
D|---------------------------------------------------|
A|---------------------------------------------------|
E|---------------------------------------------------|

  Caleb right guitar
  He climbs the neck with the chord shape as Jared does
  on the bass, when Jared plays Bm, so does caleb, etc.
  It's on every "this could be the end".
e|---------------------------------------------------|
B|---------------------------------------------------|
G|---------------------------------------------------|
D|-9-9-9-9-11-13-13-13-13----------------------------|
A|-9-9-9-9-11-13-13-13-13----------------------------|
E|-7-7-7-7-9--11-11-11-11----------------------------|

  He finishes up with going down the neck to the Bm,
  getting right into the verse
e|---------------------------------------------------|
B|---------------------------------------------------|
G|---------------------------------------------------|
D|-13-11-9-------------------------------------------|
A|-13-11-9-------------------------------------------|
E|-11-9--7-------------------------------------------|

[BRIDGE]

  Jared bass
G|---------------------------------|
D|---------------------------------| \ plays
A|-----9-----9---------9-----9-9-9-| / twice
E|-7-7---7-7---7-7-7-7---7-7-------|

G|---------------------------------------------------|
D|---------------------------------------------------| \ plays
A|--------13-------13-------------13-------13-13-13\-| / twice
E|-/11-11----11-11----11-11-11-11----11-11-----------|

  Matthew left guitar
e|---------------------------------------------------|
B|-4t/12t-11t-------------------4t/12t-11t-----------|
G|---------------------------------------------------|
D|------------13t\-------------------------13t\------|
A|---------------------------------------------------|
E|---------------------------------------------------|

  Matthew solo
  He uses effects to play this but you can just bend/pull-hammer
  The whole solo is played with tremolo-technique so i wont
  put up t's, it will just make it confusing
e|----------------------------------------------------------------------------------|
B|----------------------------------------------------------------------------------|
G|-11h13-11h13-11h13----11h13-11h13-11h13----11h13-11h13-11h13----11h13-11h13-11h13-|
D|----------------------------------------------------------------------------------|
A|----------------------------------------------------------------------------------|
E|----------------------------------------------------------------------------------|

e|----------------------------------------------------------------------------------|
B|----------------------11-13-------------------------------------------------------|
G|-11b13r11b13r11----13---------11h13-11h13-11h13----11h13-11h13-11h13---11b13------|
D|----------------------------------------------------------------------------------|
A|----------------------------------------------------------------------------------|
E|----------------------------------------------------------------------------------|

e|------------------------------------------------------------------------------------------|
B|----------------------------------------11-13---------------------------------------------|
G|-11h13-11h13-11h13----11h13-11h13-11h13------------11h13-11h13-11h13----11h13-11h13-11h13-|
D|------------------------------------------------------------------------------------------|
A|------------------------------------------------------------------------------------------|
E|------------------------------------------------------------------------------------------|

e|--------|
B|--------|
G|-11h13~-|
D|--------|
A|--------|
E|--------|
Tap to rate this tab
 
# A B C D E F G H I J K L M N O P Q R S T U V W X Y Z