Guitaretab - guitar tabs
Song name
# A B C D E F G H I J K L M N O P Q R S T U V W X Y Z

Kings Of Leon - Birthday tab

Kings of Leon
Come Around Sundown
Birthday

Standard Tuning

[INTRO]

  Caleb right guitar
e|-0-0-14-0-0--x-x--0-0-14-0-0--x-x-------------------------------------|
B|-0-0-16-0-0--x-x--0-0-16-0-0--x-x-------------------------------------|
G|-0-0-14-0-0--x-x--0-0-14-0-0--x-x-----0-14-14-x-x----0-14-14----------|
D|-----------------------------------12-0-14-14-x-x-12-0-14-14----------|
A|-----------------------------------12-0-0--0--x-x-12-0-0--0-----------|
E|-----------------------------------10-------------10------------------|

  Matthew left guitar (comes in on second count)
e|-------------0-14-0-----------0-14-0----------------------------------|
B|-------------0-16-0-----------0-16-0---------------10--------------10-|
G|-------------0-0--0-----------0-0--0-------------0-11------------0-11-|
D|----------------------------------------------12-0-12---------12-0-12-|
A|----------------------------------------------12---12---------12---12-|
E|----------------------------------------------------------------------|

e|-----3-3--------3-3--------3-3--------3-3---|
B|-2-2-----2--2-2-----2--2-2-----2--2-2-----2-|
G|--------------------------------------------|
D|--------------------------------------------|
A|--------------------------------------------|
E|--------------------------------------------| \
                                                  play twice
e|-----5-5--------5-5--------5-5--------5-5---| /
B|-7-7-----7--7-7-----7--7-7-----7--7-7-----7-|
G|--------------------------------------------|
D|--------------------------------------------|
A|--------------------------------------------|
E|--------------------------------------------|

e|-------15-|
B|-13s14----|
G|----------|
D|----------|
A|----------|
E|----------|

  Jared bass (comes in on third count)
G|-------------------------------------------------|
D|-------------------------------------------------|
A|-----------------5-7-------5-7----9-9-7-5--9-7-5-|
E|-10-slide-down-7-------7-7-----------------------|

[VERSE 1]

  Caleb right guitar
e|-0-0-14-0-0--x-x--0-0-14-0-0--x-x------------------------------------|
B|-0-0-16-0-0--x-x--0-0-16-0-0--x-x------------------------------------|
G|-0-0-14-0-0--x-x--0-0-14-0-0--x-x-----0-14-14-x-x----0-14-14---------| \ play til'
D|-----------------------------------12-0-14-14-x-x-12-0-14-14---------| / chorus
A|-----------------------------------12-0-0--0--x-x-12-0-0--0----------|
E|-----------------------------------10-------------10-----------------|

  Jared bass
G|-----------------------------------|
D|-----------------------------------|
A|---5-7-------5-7----9-9-7-5--9-7-5-|
E|-7-------7-7-----------------------|

  Matthew left guitar (0:45)
e|---------------------------------------------------------------------|
B|------------------------------------------------------------------10-|
G|----------------------------------------------------------------0-11-|
D|-------------------------------------------------------------12-0-12-|
A|-------------------------------------------------------------12---12-|
E|-------------------------------------------------------------10------|

e|--------------------------------------3---3-3-------5----------------|
B|-------------------------------------------------s7------------------|
G|---------------------------------------------------------------------|
D|---------------------------------------------------------------------|
A|---------------------------------------------------------------------|
E|---------------------------------------------------------------------|

e|--------------------------------------10-------10--------------------|
B|-----------------------------------------12-10-----------------------|
G|---------------------------------------------------------------------| \ this part
D|---------------------------------------------------------------------| / palm muted
A|---------------------------------------------------------------------|
E|---------------------------------------------------------------------|

[CHORUS]

  Caleb right guitar
e|-14-x-14-x-14-x-14-x-14...etc-|
B|-16-x-16-x-16-x-16-x-16...----|
G|-14-x-14-x-14-x-14-x-14...----|
D|------------------------------|
A|------------------------------|
E|------------------------------|

  Jared bass
G|---------------------------------|
D|---------------------------------|
A|---------------------------------|
E|-3-3-3-3-3-3-3-3-3-3-3-3-3-3-3-3-|

G|---------------------------------|
D|---------------------------------|
A|---------------------------------|
E|-7-7-7-7-7-7-7-7-7-7-7-7-7-7-7-7-|

G|---------------------------------|
D|---------------------------------|
A|---------------------------------|
E|-3-3-3-3-3-3-3-3-3-3-3-3-3-3-3-3-|

G|---------------------------------|
D|---------------------------------|
A|---------------------7s9-7-5-7-5-|
E|-7-7-7-7-7-7-7-7-7-7-------------|

  Matthew left guitar
e|-------------------------|
B|-12-12-12-12-12-12-12-12-|
G|-12-12-12-12-12-12-12-12-|
D|-14-14-14-14-14-14-14-14-|
A|-------------------------|
E|-------------------------|

e|-----------------|
B|-7-7-7-7-7-7-7-7-|
G|-7-7-7-7-7-7-7-7-|
D|-9-9-9-9-9-9-9-9-|
A|-----------------|
E|-----------------|

e|-------------------------|
B|-12-12-12-12-12-12-12-12-|
G|-12-12-12-12-12-12-12-12-|
D|-14-14-14-14-14-14-14-14-|
A|-------------------------|
E|-------------------------|

e|-----------------|
B|-7-7-7-7-7-7-7-7-|
G|-7-7-7-7-7-7-7-7-|
D|-9-9-9-9-9-9-9-9-|
A|-----------------|
E|-----------------|

[PRE VERSE 2]

  Caleb right guitar
e|-0-0-14-0-0--x-x--0-0-14-0-0--x-x------------------------------------|
B|-0-0-16-0-0--x-x--0-0-16-0-0--x-x------------------------------------|
G|-0-0-14-0-0--x-x--0-0-14-0-0--x-x-----0-14-14-x-x----0-14-14---------|
D|-----------------------------------12-0-14-14-x-x-12-0-14-14---------|
A|-----------------------------------12-0-0--0--x-x-12-0-0--0----------|
E|-----------------------------------10-------------10-----------------|

  Jared bass
G|-------------------------------------|
D|-------------------------------7-7h9-|
A|---5-7-------5-7----9-9-7-5--9-------|
E|-7-------7-7-------------------------|

  Matthew left guitar
e|-----3-3--------3-3--------3-3--------3-3---|
B|-2-2-----2--2-2-----2--2-2-----2--2-2-----2-|
G|--------------------------------------------|
D|--------------------------------------------|
A|--------------------------------------------|
E|--------------------------------------------|

e|-----5-5--------5-5--------5-5--------5-5---|
B|-7-7-----7--7-7-----7--7-7-----7--7-7-----7-|
G|--------------------------------------------|
D|--------------------------------------------|
A|--------------------------------------------|
E|--------------------------------------------|
[ Tab from: http://www.guitaretab.com/k/kings-of-leon/274335.html ]
e|-------15-|
B|-13s14----|
G|----------|
D|----------|
A|----------|
E|----------|

[VERSE 2]

  Caleb right guitar
e|-0-0-14-0-0--x-x--0-0-14-0-0--x-x------------------------------------|
B|-0-0-16-0-0--x-x--0-0-16-0-0--x-x------------------------------------|
G|-0-0-14-0-0--x-x--0-0-14-0-0--x-x-----0-14-14-x-x----0-14-14---------|
D|-----------------------------------12-0-14-14-x-x-12-0-14-14---------|
A|-----------------------------------12-0-0--0--x-x-12-0-0--0----------|
E|-----------------------------------10-------------10-----------------|

  Jared bass
G|-----------------------------------|
D|-----------------------------------|
A|---5-7-------5-7----9-9-7-5--9-7-5-|
E|-7-------7-7-----------------------|

  Matthew left guitar (1:40)
e|--------------------------------------------------10----------------10-|
B|--------------------------------------15-12-10-12---12-----15-12-10----|
G|-----------------------------------------------------------------------|
D|-----------------------------------------------------------------------|
A|-----------------------------------------------------------------------|
E|-----------------------------------------------------------------------|
                                        (1:50)
e|-----------------------------------------14-------------------14-------|
B|--------------------------------------15-------------------15----15----|
G|-----------------------------------------------------------------------|
D|-----------------------------------------------------------------------|
A|-----------------------------------------------------------------------|
E|-----------------------------------------------------------------------|

[PRE BRIDGE]

  Caleb right guitar
e|-0-0-14-0-0--x-x--0-0-14-0-0--x-x------------------------------------|
B|-0-0-16-0-0--x-x--0-0-16-0-0--x-x------------------------------------|
G|-0-0-14-0-0--x-x--0-0-14-0-0--x-x-----0-14-14-x-x----0-14-14---------|
D|-----------------------------------12-0-14-14-x-x-12-0-14-14---------|
A|-----------------------------------12-0-0--0--x-x-12-0-0--0----------|
E|-----------------------------------10-------------10-----------------|

  Jared bass
G|------------------------------------------|
D|----------------------------7-7h9---------|
A|---5-7-------5-7--------9-9-------9-9-7-5-|
E|-7-------7-7------------------------------|

G|--------------------------------------------------------|
D|----------------------------7-7h9-----------------------|
A|---5-7-------5-7s9s7----9-9-------9-9-7-5--7-slide-down-|
E|-7-------7-7---------------------------------3----------| the last note begins 
the pre chorus (2:32)

  Matthew left guitar
e|-----------------10--------------------14-----|
B|-15-x-12-x-10-12----12-10-15-x-12-x-10---12---|
G|----------------------------------------------|
D|----------------------------------------------|
A|----------------------------------------------|
E|----------------------------------------------|

e|-----------------10--------------------10-----|
B|-15-x-12-x-10-12----12-10-15-x-12-x-10---12---|
G|----------------------------------------------|
D|----------------------------------------------|
A|----------------------------------------------|
E|----------------------------------------------|

e|-----------------10--------------------14-----|
B|-15-x-12-x-10-12----12-10-15-x-12-x-10---12---|
G|----------------------------------------------|
D|----------------------------------------------|
A|----------------------------------------------|
E|----------------------------------------------|

e|-----------------10-----------------------10----10~-| let last note ring
B|-15-x-12-x-10-12----12-10-15-x-12-x-10h12----12-----|
G|----------------------------------------------------|
D|----------------------------------------------------|
A|----------------------------------------------------|
E|----------------------------------------------------|

[PRE CHORUS]

  Caleb right guitar
e|-14-x-14-x-14-x-14-x-14...etc-|
B|-16-x-16-x-16-x-16-x-16...----|
G|-14-x-14-x-14-x-14-x-14...----|
D|------------------------------|
A|------------------------------|
E|------------------------------|

  Matthew left guitar (comes in on second count)
e|-14-x-14-x-14-x-14-x-14...etc-|
B|-16-x-16-x-16-x-16-x-16...----|
G|-14-x-14-x-14-x-14-x-14...----|
D|------------------------------|
A|------------------------------|
E|------------------------------|

  Jared bass (2:36)
G|--------------------------------|
D|--------------------------------|
A|--------------------------------|
E|-3s7----------------------------|

[CHORUS]

  Caleb right guitar
e|-14-x-14-x-14-x-14-x-14...etc-|
B|-16-x-16-x-16-x-16-x-16...----|
G|-14-x-14-x-14-x-14-x-14...----|
D|------------------------------|
A|------------------------------|
E|------------------------------|

  Matthew left guitar
e|-14-x-14-x-14-x-14-x-14...etc-|
B|-16-x-16-x-16-x-16-x-16...----|
G|-14-x-14-x-14-x-14-x-14...----|
D|------------------------------|
A|------------------------------|
E|------------------------------|

G|-----------------------------------------------|
D|-----------------------------------------------|
A|-----------------------------------------------|
E|-10-slide-down-3-3-3-3-3-3-3-3-3-3-3-3-3-3-3-3-|

G|---------------------------------|
D|---------------------------------|
A|---------------------------------|
E|-7-7-7-7-7-7-7-7-7-7-7-7-7-7-7-7-|

G|---------------------------------|
D|---------------------------------|
A|---------------------------------|
E|-3-3-3-3-3-3-3-3-3-3-3-3-3-3-3-3-|

G|---------------------------------|
D|---------------------------------|
A|---------------------------------|
E|-7-7-7-7-7-7-7-7-7-7-7-7-7-7-7-7-|

G|---------------------------------|
D|---------------------------------|
A|-5-5-5-5-5-5-5-5-5-5-5-5-5-5-5-5-|
E|---------------------------------|

G|---------------------------------|
D|---------------------------------|
A|-7-7-7-7-7-7-7-7-7s9--7--5-7-5---|
E|-------------------------------7-|

[OUTRO]

  Caleb right guitar
e|-0-0-14-0-0--x-x--0-0-14-0-0--x-x------------|
B|-0-0-16-0-0--x-x--0-0-16-0-0--x-x------------|
G|-0-0-14-0-0--x-x--0-0-14-0-0--x-x-------0-14-|
D|-------------------------------------12-0-14-|
A|-------------------------------------12-0-0--|
E|-------------------------------------10------|

  Matthew left guitar (comes in on second count)
e|-------------0-14-0-----------0-14-0---------|
B|-------------0-16-0-----------0-16-0------10-|
G|-------------0-0--0-----------0-0--0----0-11-|
D|-------------------------------------12-0-12-|
A|-------------------------------------12---12-|
E|---------------------------------------------|

  Jared bass
G|----------------------------------|
D|----------------------------7-7h9-|
A|---5-7-------5-7--------9-9-------|
E|-7-------7-7----------------------|
Related for Birthday tab
Birthday chords by Kings Of Leon