Kings Of Leon - Pickup Truck tab

-------------------------------------------------------------------------------
			     SONG NAME - Pickup Truck
-------------------------------------------------------------------------------
Tabbed by:Blake

Tuning:Standard

Feedback:
e|---------------------------------------------------------------------------|
B|------------------------------13/17--13------------------------------------|
G|-------5------5/7--5-------------------------------------------------------|
D|---------------------------------------------------------------------------|
A|---------------------------------------------------------------------------|
E|---------------------------------------------------------------------------|

bass Riff
G|-----------------------------------------------------------------------------|
D|-----------------------------------------------------------------------------|
A|-----------------------------------------------------------------------------|
E|---8-8-8-8--10-10-10--5-5----3--5-5-5--3-3-3---0-1---------------------------|

Chords:   C           Am          F
e|--------0------------0-----------------------------------------------------|
B|--------1------------1-----------------------------------------------------|
G|--------0------------2-----------------------------------------------------|
D|--------2------------2----------3------------------------------------------|
A|--------3------------0----------3------------------------------------------|
E|--------------------------------1------------------------------------------|

Solo:
e|---------------------------------------------------------------------------|
B|----------6-5-----------5-----------6-5----------5-------------------------|
G|-------5-----------7-5----5------5----------7-5----5-5-5h7-----------------|
D|----------------5-------------------------5--------------------------------|
A|---------------------------------------------------------------------------|
E|---------------------------------------------------------------------------|

Repeat Chords over and over again throughout the song along with the bass line

************************************

| /   slide up
| \   slide down
| h   hammer-on
| p   pull-off
| ~   vibrato
| +   harmonic
| x   Mute note
| b   Bend
| pb  Pre-bend
| br  Bend release
| pbr Pre-bend release
| brb Bend release bend

************************************
Tap to rate this tab
 
# A B C D E F G H I J K L M N O P Q R S T U V W X Y Z