Kings Of Leon - Revelry tab

-------------------------------------------------------------------------------
			     REVELRY - Kings Of Leon
-------------------------------------------------------------------------------
Tabbed by: Macheeoo
Email: macheeoo@yahoo.com

Tuning: Standard

0:00
Caleb
e|-----------------------|
B|-----------------------|
G|-----------------------|
D|--2~---4~---6~---------|
A|--2~---4~---6~---------|
E|--0~---0~---0~---------| X5      (up until the pre-chorus)

0:26
Matthew
e|---19b-----------------|
B|-------------13b14~----|
G|-----------------------|
D|-----------------------|
A|-----------------------|
E|-----------------------|

0:53
Matthew
e|---7--7--7--7----9----9----9----9-----11---11---11---11-----9---9---9---9~-|
B|----9--9--9--9----10---10---10---10-----12---12---12---12----10--10--10----|
G|-----9--9--9--9-----11---11---11---11-----13---13---13---13----11--11--11--|
D|---------------------------------------------------------------------------|
A|---------------------------------------------------------------------------|
E|---------------------------------------------------------------------------|

1:07
Caleb    (Chorus)
     A       A      B            E    F#m/E   G#m/E    F#m/E
e|---5~------5~-----7777777~--/--0~-----0~------0~-------0~------------------|
B|---5~------5~-----7777777~--/--0~-----0~------0~-------0~------------------|
G|---6~------6~-----8888888~--/--1~-----2~------4~-------2~------------------|
D|---7~------7~-----9999999~--/--2~-----4~------6~-------4~------------------|
A|---7~------7~-----9999999~--/--2~-----4~------6~-------4~------------------|
E|---5~------5~-----7777777~--/--0~-----0~------0~-------0~------------------|

1:14
Matthew
e|---19b---16--------------------14-----|
B|---------------14b~---10/12b~------14~|
G|--------------------------------------|
D|--------------------------------------|
A|--------------------------------------|
E|--------------------------------------|

1:26
Caleb
     E     F#m/E   G#m/E   F#m/E
e|---0-------0-------0-------0~---------|
B|---0-------0-------0-------0~---------|
G|---1-------2-------4-------2~---------|
D|---2-------4-------6-------4~---------|
A|---2-------4-------6-------4~---------|
E|---0-------2-------0-------0~---------|    x2

Matthew
e|----------7~---5~-------7~---9~----11~---9~------|
B|---9\5~---9~---5~-------9~---10~---12~---10~-----|
G|----------8~---6~-------9~---11~---13~---11~-----|
D|-------------------------------------------------|
A|-------------------------------------------------|
E|-------------------------------------------------|

1:52
REPEAT CHORUS UNTIL END

2:25
Matthew
e|---7--7--7--7----9----9----9----9-----11---11---11---11-----9---9---9---9~-|
B|----9--9--9--9----10---10---10---10-----12---12---12---12----10--10--10----|
G|-----9--9--9--9-----11---11---11---11-----13---13---13---13----11--11--11--|
D|---------------------------------------------------------------------------|
A|---------------------------------------------------------------------------|
E|---------------------------------------------------------------------------|    x2

END


Lyrics:

What a night for a dance, you know im a dancing machine
with the fire in my bones and the sweet taste of kerosene
I get lost in the night so high dont wanna come down
to face the loss of the good thing that i have found

woo hoo hoooo
woo hoo hoooo

In the dark of the night i hear you callin my name
with the hardest of hearts, i still feel full of pain
So i drink and i smoke and i ask you if your ever around 
even though it was me who drove right into the ground

See the time we shared it was precious to me
but all the while i was dreamin of revelry


Gonna run baby run like a stream down a mountain side
with the wind in my back i wont ever even bat an eye
Just know it was you all along that had a hold of my heart
but the demon in me was a best friend from the start

So the time we shared it was precious to me
all the while i was dreamin of revelry
dreamin of revelry

And i told myself oh the way you go 
it rained so hard it felt like snow, 
came tumbling down on me 
In the back of the woods it was dark as night
palest pale of the old moonlight 
everything felt so empty

Dreamin of revelry
Dreamin of revelry
Dreamin of revelry
Dreamin of revelry

END
Tap to rate this tab
 
# A B C D E F G H I J K L M N O P Q R S T U V W X Y Z