Song name
# A B C D E F G H I J K L M N O P Q R S T U V W X Y Z

Kings Of Leon - Pistol Of Fire tab

KINGS OF LEON
PISTOL OF FIRE SOLO (1:49)
AHA SHAKE HEARTBREAK


b = bend
r  = release
s = slide

First tablature, the solo is pretty simple, the hardest part is getting the speed down.

e|----9-----9-----9-----9-----9------------12--------12---12b-x------------------9----|
B|----9-----9-----9-----9-----9--121212-9----9-12-9----9--------12b-12r---9-7-5---7-5-|
G|-11b---11b---11b---11b---11b--------------------------------------------------------|
D|------------------------------------------------------------------------------------|
A|------------------------------------------------------------------------------------|
E|------------------------------------------------------------------------------------|

e|---5555-----------------9--------------12-11-9-12b-----|
B|---5555-7b7r-5--5-------9----12b-12r-9-----------------|
G|-6------------6-----11b--11r---------------------------|
D|-------------------------------------------------------|
A|-------------------------------------------------------|
E|-------------------------------------------------------|


Also if you're looking for the little lick that's played during the chorus:

e|-----------------------------|
B|-----------------------------|
G|-7---------7---------7-------|
D|--9-5s6------9-5s6----9-5s6--|
A|--------7----------7---------|
E|-----------------------------|
Please let me know of any changes you think should be made, although I think it's pretty accurate.

ROCK ON
Tap to rate this tab
# A B C D E F G H I J K L M N O P Q R S T U V W X Y Z