Song name
# A B C D E F G H I J K L M N O P Q R S T U V W X Y Z

Kings Of Leon - Wicker Chair tab

C   - X32010
C9  - X32030
C7+ - X32000
C7  - X32310
F7+ - XX3210
G   - 320033
Fm  - 133111

Guitar 1

C9   C   C7+   C    C7   F7+   F7+   F7+
(in your little..)
C9   C   C7+   C    C7   F7+   F7+   F7+
(you laugh at..)
G    G   F7+   F7+  F7+  Fm    G   [Fm and G hit only once.]
(but hey..)

the second part is pretty much the same thing.
the chorus is the same passage: C9 C C7+ C C7 F7+ F7+ F7+.


Guitar 2

it's missing the second guitar verses, i'll work on that later.

Chorus

e --------------------------------------------------------------------------|
b --------------------------------------------------------------------------|
g ----------7b(9)--------------7b(9)--------------7b(9)-(9)r(7)-7-5-5h7-5---|
d --5-7-5-7------------5-7-5-7-----------5-7-5-7--------------------------7-|
a --------------------------------------------------------------------------|
E --------------------------------------------------------------------------|
    You're Losing...
(2x)

e -----------------------------------------------|
b -----------------------------------------------|
g --7b(9)-7b(9)-7b(9)-7b(9)-7b(9)r(7)-5---5---5--|
d --------------------------------------7---7----|
a -----------------------------------------------|
E -----------------------------------------------|

e ---------------------------------------------|
b ---------------------------8-----------------|
g -7-7b(9)-7b(9)-7b(9)-7b(9)---(9)r(7)-5---5-7-|
d ---------------------------------------7-----|
a ---------------------------------------------|
E ---------------------------------------------|

e -------------------------------------------------|
b --8-8-8-8-10-8-8-8-10-13131313131313131313(...)--|
g -------------------------------------------------|
d -------------------------------------------------|
a -------------------------------------------------|
E -------------------------------------------------|

e -----------------------------------------------------------------|
b --15b(17)-15b(17)-15b(17)-15b(17)-15b(17)r(15)-13----13----13-15-|
g --------------------------------------------------14----14-------|
d -----------------------------------------------------------------|
a -----------------------------------------------------------------|
E -----------------------------------------------------------------|

e -----------------------------------------------------------|
b -15b(17)r(15)-13----13-15-15b(17)-15b(17)r(15)-13----13-15-|
g -----------------14-------------------------------14-------|
d -----------------------------------------------------------|
a -----------------------------------------------------------|
E -----------------------------------------------------------|

e -15b(17)-15b(17)-15b(17)-15b(17)-15b(17)r(15)-12---------------------------|
b -------------------------------------------------1515-13----13-13----1515--|b
g ---------------------------------------------------------14-------14-------|
d ---------------------------------------------------------------------------|
a ---------------------------------------------------------------------------|
E ---------------------------------------------------------------------------|

tabbed by danielblast.
Tap to rate this tab
 
# A B C D E F G H I J K L M N O P Q R S T U V W X Y Z