Song name
# A B C D E F G H I J K L M N O P Q R S T U V W X Y Z

Kings Of Leon - Closer tab

Kings of Leon - Closer

Riff 1
e|-------------------------------------------------------------------------|
B|-----------/12-12-12----------------/15-15-15----------------/14-14-14---|
G|-------------------------------------------------------------------------|
D|-9-9-9-9-9------------12-12-12-12-12-----------11-11-11-11-11------------|
A|-------------------------------------------------------------------------|
E|-------------------------------------------------------------------------|

Riff 2
e|-------------------------------------------------------------------------|
B|-------------------------------------------------------------------------|
G|------------------------------11-----------------------6-----------------|
D|-------9------9---------12--------------12---------7-----------7---------|
A|---9------------9----------10--------------12--------------------7-------|
E|-7---7------7--------10--------------10----------5---5-------5-----------|

Riff 3
e|-------------------------------------------------------------------------|
B|------12---------12--------------15----------15------------10-------10---|
G|---11----11---11----11--------14----14----14----14-------9----9---9----9-|
D|-9----------9--------------12----------12--------------7--------7--------|
A|-------------------------------------------------------------------------|
E|-------------------------------------------------------------------------|

Riff 4
e|--------------------------------------------------------------------------|
B|-10-----------\5----\3---/5-\2--------------------------------------------|
G|--------------------------------------------------------------------------|
D|--------------------------------------------------------------------------|
A|--------------------------------------------------------------------------|
E|--------------------------------------------------------------------------|
Tap to rate this tab
# A B C D E F G H I J K L M N O P Q R S T U V W X Y Z