Song name
# A B C D E F G H I J K L M N O P Q R S T U V W X Y Z

Kings Of Leon - My Third House tab

My Third House (B-side on "On Call" single) by Kings of Leon

Guitar 2 (Matthew Followill)

Tuning: Standard

b= bend
r= bend/release
h= hammer on
p= pull off
s= slide
v= vibrato
.= staccato


Intro/Verse:

e|------------------------|
B|------------------------|
G|-x-9-x-8-x-9-x-8-6------|     Play 3 times
D|-------------------9----|
A|------------------------|
E|------------------------|

e|------------------------|
B|------------------------|
G|-x-9-x-8-x-6s/----------|     Fourth time
D|------------------------|
A|------------------------|
E|------------------------|

Bass only

e|------------------------|
B|------------------------|
G|-x-9-x-8-x-9-x-8-6------|
D|-------------------9----|     Play 4 times
A|------------------------|
E|------------------------|

e|--------------------------|
B|-12-x-9-x-7---------------|
G|------------x-9-x-8h9-8---|   Play 3 times
D|--------------------------|
A|--------------------------|
E|--------------------------|

e|------------------------|
B|-12-x-9-x-7s9/----------|
G|------------------------|    Fourth time
D|------------------------|
A|------------------------|
E|------------------------|

Bass only

e|------------------------|
B|------------------------|
G|-x-9-x-8-x-9-x-8-6------|
D|-------------------9----|     Play 4 times
A|------------------------|
E|------------------------|

e|--------------------------|
B|-12-x-9-x-7---------------|
G|------------x-9-x-8h9-8---|   Play 4 times
D|--------------------------|
A|--------------------------|
E|--------------------------|


Chorus:

e|-------------------------------------|
B|-s12--12.-12.-12s9--9.-9.-9s7-7v-----|
G|-------------------------------------|
D|-------------------------------------|
A|-------------------------------------|
E|-------------------------------------|

e|------------------------------------|
B|-12.-12.-12s9-9.-9.-9s7-7h9-7v------|
G|------------------------------------|
D|------------------------------------|
A|------------------------------------|
E|------------------------------------|

e|------------------------------------|
B|-9.-9.-9s7-7.-7.-7s4-4r-------------|
G|------------------------------------|    Play twice
D|------------------------------------|
A|------------------------------------|
E|------------------------------------|

e|------------------------------------|
B|-12.-12.-12s9-9.-9.-9s7-7v----------|
G|------------------------------------|
D|------------------------------------|
A|------------------------------------|
E|------------------------------------|

e|------------------------------------|
B|-12.-12.-12s9-9.-9.-9s7-7h9-7v------|
G|------------------------------------|
D|------------------------------------|
A|------------------------------------|
E|------------------------------------|

e|------------------------------------|
B|-9.-9.-9s7-7.-7.-7s4-4r-------------|
G|------------------------------------|    Play twice (no bend/release 2nd
D|------------------------------------|                time, straight to
A|------------------------------------|                Verse 2)
E|------------------------------------|

Verse 2:

e|------------------------|
B|------------------------|
G|-x-9-x-8-x-9-x-8-6------|     Play 3 times
D|-------------------9----|
A|------------------------|
E|------------------------|

e|------------------------|
B|------------------------|
G|-x-9-x-8-x-6s/----------|     Fourth time
D|------------------------|
A|------------------------|
E|------------------------|

e|----------------|
B|----------------|
G|----------------|
D|-11--9h11p9-----|
A|----------------|
E|----------------|

e|------------------------|
B|------------------------|
G|-x-9-x-8-x-9-x-8-6------|
D|-------------------9----|     Play 4 times
A|------------------------|
E|------------------------|

e|--------------------------|
B|-12-x-9-x-7---------------|
G|------------x-9-x-8h9-8---|   Play 4 times
D|--------------------------|
A|--------------------------|
E|--------------------------|

Chorus 2:

e|-------------------------------------|
B|-s12--12.-12.-12s9-9.-9.-9s7-7v------|
G|-------------------------------------|
D|-------------------------------------|
A|-------------------------------------|
E|-------------------------------------|

e|------------------------------------|
B|-12.-12.-12s9-9.-9.-9s7-7h9-7v------|
G|------------------------------------|
D|------------------------------------|
A|------------------------------------|
E|------------------------------------|

e|------------------------------------|
B|-9.-9.-9s7-7.-7.-7s4-4r-------------|
G|------------------------------------|     Play twice
D|------------------------------------|
A|------------------------------------|
E|------------------------------------|

e|------------------------------------|
B|-12.-12.-12s9-9.-9.-9s7-7v----------|
G|------------------------------------|
D|------------------------------------|
A|------------------------------------|
E|------------------------------------|

e|------------------------------------|
B|-12.-12.-12s9-9.-9.-9s7-7h9-7v------|
G|------------------------------------|
D|------------------------------------|
A|------------------------------------|
E|------------------------------------|

e|----------------------0-------------|
B|-9.-9.-9s7--7.-7.-7s4-4r------------|
G|------------------------------------|
D|------------------------------------|    Play twice
A|------------------------------------|
E|------------------------------------|

Solo:


e|----11b--12--11b----|
B|-12-----------------|
G|--------------------|
D|--------------------|
A|--------------------|
E|--------------------|


e|----------------11b--------12p11--------------------|
B|-12h14-(x?)-12-------------------12s7--------12h14--|  (Hammer ons go very
G|----------------------------------------------------|   fast, don't know
D|----------------------------------------------------|   exactly how many
A|----------------------------------------------------|   times)
E|----------------------------------------------------|


e|-------------------------------------------------|
B|-9h10p9-7h9p7-5h7p5-4h5p4------------------------|
G|--------------------------6b-6-7-6-4h6-4v-s(8)---|
D|-------------------------------------------------|
A|-------------------------------------------------|
E|-------------------------------------------------|


e|----11--11-12-11-12-11bv-------------19----21b---|
B|-12----------------------------------------------|
G|-------------------------------------------------|
D|-------------------------------------------------|
A|-------------------------------------------------|
E|-------------------------------------------------|

Outro:

e|------------------------------------|
B|-12.-12.-12s9-9.-9.-9s7-7v----------|
G|------------------------------------|    Play twice
D|------------------------------------|
A|------------------------------------|
E|------------------------------------|

e|---------------------0--------------|
B|-9.-9.-9s7-7.-7.-7s4-4r-------------|
G|------------------------------------|
D|------------------------------------|    Play twice
A|------------------------------------|
E|------------------------------------|

e|------19v-------|
B|----------------|
G|----------------|
D|----------------|     (at about 3:25)
A|----------------|
E|----------------|

e|------------------------------------|
B|-12.-12.-12s9-9.-9.-9s7-7v----------|
G|------------------------------------|    Play twice
D|------------------------------------|
A|------------------------------------|
E|------------------------------------|

e|---------------------0--------------|
B|-9.-9.-9s7-7.-7.-7s4-4r-------------|
G|------------------------------------|
D|------------------------------------|    Play twice
A|------------------------------------|
E|------------------------------------|

Fade out.

This song deserves more attention, a lot of fun to play!
Tap to rate this tab
# A B C D E F G H I J K L M N O P Q R S T U V W X Y Z