Song name
# A B C D E F G H I J K L M N O P Q R S T U V W X Y Z

Kings Of Leon - Cold Desert tab

Kings Of Leon-Cold Desert

Note:This is a bass guitar part of the song converted for acoustic(or electric)guitar.

Tuning: Drop D (DADGBe)

E|-----------------------------------------------------------------|
B|-----------------------------------------------------------------|
G|-----------------------------------------------------------------|
D|-----------------------------------------------------------------|   Intro
A|---5---5---5---5---5---4---5---7---2---2---2---2---2---2---2---2-|
D|-0---0---0---0---0---0---0---0---0---0---0---0---0---0---0---0---|



E|-----------------------------------------------------------------|
B|-----------------------------------------------------------------|
G|-----------------------------------------------------------------|
D|--/4---4---4---5---7---5---4--/9---9---9---11---12---11---9---11-|   Chorus
A|-----------------------------------------------------------------|
D|-0---0---0---0---0---0---0---0---0---0---0----0----0----0---0----|



E|-----------------------------------------------------------------|
B|-----------------------------------------------------------------|
G|-----------------------------------------------------------------|
D|--/4---4---4---5---7---5---4--/9---9---9---12---11---9---11\-----|   End
A|-----------------------------------------------------------------|
D|-0---0---0---0---0---0---0---0---0---0---0----0----0---0---------|
Tap to rate this tab
# A B C D E F G H I J K L M N O P Q R S T U V W X Y Z