Song name
# A B C D E F G H I J K L M N O P Q R S T U V W X Y Z

Kings Of Leon - Soundcheck At 02 tab

Song from the Talihina Sky extras dvd

Link:
http://www.youtube.com/watch?v=zQEUYoGe3ts

Throw some octaves in for the verse

Intro:
e|----------------------------------|
B|----------------------------------|
G|------------7~--------------------|
D|----9-9-9-9-----------------------|
A|-----------------5-5-5-5-5-5------|
E|----------------------------------|

e|--------------------------------------------------|
B|--------------------------------------------------|
G|---------------9/11--------------9/11----12-11----|
D|----9-9-9-9----------11-11-11-11------------------|
A|--------------------------------------------------|
E|--------------------------------------------------|

Verse:

e|--------------------------------------------------|
B|--------------------------------------------------|
G|--------------------------------------------------|
D|--------------------------------------------------|
A|--------------------------------------------------|
E|--7-7-7-7-7-7-7-7/9-9--5-5-5-5-5-5-5-5------------|
Tap to rate this tab
# A B C D E F G H I J K L M N O P Q R S T U V W X Y Z