Guitaretab - guitar tabs
Song name
# A B C D E F G H I J K L M N O P Q R S T U V W X Y Z

Kings Of Leon - California Waiting tab

                             kings of leon 

                           california waiting

 
                                 INTRO


standasrd tunning : e a d g b e 

  G
E ------------------------------------------------------
B ------------------------------------------------------
G ------------------------------------------------------
D -2-------2-0-2-4-2------------------------------------
A --5-(5)/2-----------2-2-2-2-2-2-2-2-2-2-2-2-2-2-2-2-O-
E --------------------3-3-3-3-3-3-3-3-3-3-3-3-3-3-3-3---
[ Tab from: http://www.guitaretab.com/k/kings-of-leon/34252.html ]
  D                   G
E --------------------------------------
B --------------------------------------
G --------------------------------------
D -2-------2-0-2-4-2--2-------2-0-2-4-2-
A --5-(5)/O------------5-(5)/2----------
E --------------------------------------

  D
E ------------------------------------------------
B ------------------------------------------------
G ------------------------------------------------
D ------------------------------------------------
A -9--9--9--9--9--9--9--9--9--9--9--9--9--9--9--0-
E -10-10-1O-10-10-10-10-10-10-10-10-10-10-10-10---
  
  G
E -----------------------------------
B -----------------------------------
G -----------------------------------
D -----------------------------------
A -2-2-2-2-2-2-2-2-2-2-2-2-2-2-2-2-0-
E -3-3-3-3-3-3-3-3-3-3-3-3-3-3-3-3---

THATS IT EXACTLY, ANY QUESTIONS EMAIL JAYTALITAY@hotmail.com
Related for California Waiting tab