Song name
# A B C D E F G H I J K L M N O P Q R S T U V W X Y Z

Kings Of Leon - Talihina Sky tab

This is my first tab but just playing along with the song i think it sounds pretty accurate.

e--------9------12------9------|-------2-----5-----2-----] [x5]
B---10-----10------10-----10---|---3-----3-----3-----3---]
G-9----9------9-------9------9-|-4---4-----4-----4-----4-]
D------------------------------|-------------------------]
A------------------------------|-------------------------]
E------------------------------|-------------------------]

e-------3---3-3-------3---3-3--|-------2---2-2-------2---2-2-] [x2]
B-------3---3-3-------3---3-3--|-------3---3-3-------3---3-3-]
G-------0---0-0-------0---0-0--|-2-2-2-2-2-2-2-2-2-2-2-2-2-2-]
D-0-0-0-0-0-0-0-0-0-0-0-0-0-0--|-0-0-0-0-0-0-0-0-0-0-0-0-0-0-]
A-2-2-2-2-2-2-2-2-2-2-2-2-2-2--|-----------------------------]
E-3-3-3-3-3-3-3-3-3-3-3-3-3-3--|-----------------------------]



Weeds blow tall on a broken train track
Ruth B draws, were fixin to get high
Maybe we'll hit the bluffs
And find ourselves the same old rum

But everybody says this place is beautiful
And you'd be so crazy to say goodbye
But everythings the same, this town is pitiful
And I'll be gettin out as soon as I can fly

Life goes by on a Talihina sky
The hopped up boys are lookin for their trouble
The knocked up girls, well, they've all got their share
Ruth seems out of her mind, swears she won't give in this time
Tap to rate this tab
# A B C D E F G H I J K L M N O P Q R S T U V W X Y Z