Song name
# A B C D E F G H I J K L M N O P Q R S T U V W X Y Z

Kings Of Leon - Supersoaker tab

Artist: Kings Of Leon
Song: Supersoaker
Album: Mechanical Bull (2013)

Standard Tuning (EADGBE)


- Intro -


Guitar I (Caleb):

Riff A [You can add the open high E and A string to the following chords for more depth.]
-----------------------------------------------------------|
--7--7-7-7--7-7-7--7-7-7--7-7-5--5-5-5--5-5-5--5-5-5--5-5--|
--6--6-6-6--6-6-6--6-6-6--6-6-6--6-6-6--6-6-6--6-6-6--6-6--|  (2x)
--7--7-7-7--7-7-7--7-7-7--7-7-7--7-7-7--7-7-7--7-7-7--7-7--|
-----------------------------------------------------------|
-----------------------------------------------------------|

-----------------------------------------------------------------------------------|
--12--12-12-12--12-12-12--12-12-12--12-12-10--10-10-10--10-10-10--10-10-10--10-10--|
--11--11-11-11--11-11-11--11-11-11--11-11-11--11-11-11--11-11-11--11-11-11--11-11--|  (2x)
--12--12-12-12--12-12-12--12-12-12--12-12-12--12-12-12--12-12-12--12-12-12--12-12--|
-----------------------------------------------------------------------------------|
-----------------------------------------------------------------------------------|



Guitar II (Matthew):

Riff B
------------------------------------------------------------------------------|
------------------------------------------------------------------------------|
--11----9--11-9---------------------------------------------------------------|
-----11---------12-11-11--7-11--11-9-7-9---11-11--9\7---11-11-9-9-12-12-7-7~--|
-----------------------------------------9------------7-----------------------|
------------------------------------------------------------------------------|



- Verse 1 -


Guitar I: Riff A

Guitar II: /

My motivation is gone too soon
Good vibrations all over you
Act like you mean it, you mean it


Guitar I: Riff A

Guitar II:

-----------------------------------------------------|
------7-----5-----5-----------7-----5-----5----------|
----6-----6---6-----6---6---6-----6---6-----6---6----|
--7-----7-------7-----7---7-----7-------7-----7------|
-----------------------------------------------------|
-----------------------------------------------------|

--------------------------------------------------------------------------|
--------12-------10-------10----------------12-------10------10-----------|
-----11-------11----11-------11----11----11-------11----11------11----11--|
--12-------12----------12-------12----12-------12----------12------12-----|
--------------------------------------------------------------------------|
--------------------------------------------------------------------------|


You gotta story you never tell
Down in the Delta, they're ringing bells
I've never seen it, seen it


Guitar I: Riff A

Guitar II:


--------------------------------------------------------------------|
--7777777777777777555555555555555577777777777777775555555555555555--|
--------------------------------------------------------------------|
--------------------------------------------------------------------|
--------------------------------------------------------------------|
--------------------------------------------------------------------|

-------------------------------------------------------------------------------|
--12121212121212121212121212121212101010101010101010101010101010101212121212121|
-------------------------------------------------------------------------------|
-------------------------------------------------------------------------------|
-------------------------------------------------------------------------------|
-------------------------------------------------------------------------------|

-----------------------------------------------------
212121212121212121210101010101010101010101010101010--
-----------------------------------------------------|
-----------------------------------------------------|
-----------------------------------------------------|
-----------------------------------------------------|

[In the live version Matthew plays Riff A in fast strums here I think.]

Back of my mind, I'm on my way
I see through smiles on every face
I don't believe it, believe it.



- Pre-chorus -


Guitar I:

--4~--4~--|
--5~--5~--|
--7~--7~--|
--7~--7~--|
--4~--4~--|
--4~--4~--|


Guitar II:

--4~--4~--|
--5~--5~--|
--7~--7~--|
--7~--7~--|
--4~--4~--|
--4~--4~--|


'Cause I'm the supersoaker, red white and blew 'em all away
With the kisses unclean as the words that you say.



- Chorus I -


Guitar I: Riff A

Guitar II: Riff B

I don't mind sentimental girls at times
Miss don't walk away, walk away.



- Verse 2 -

Guitar I: Riff A

Guitar II:

-----------------------------------------------------|
------7-----5-----5-----------7-----5-----5----------|
----6-----6---6-----6---6---6-----6---6-----6---6----|
--7-----7-------7-----7---7-----7-------7-----7------|
-----------------------------------------------------|
-----------------------------------------------------|

--------------------------------------------------------------------------|
--------12-------10-------10----------------12-------10------10-----------|
-----11-------11----11-------11----11----11-------11----11------11----11--|
--12-------12----------12-------12----12-------12----------12------12-----|
--------------------------------------------------------------------------|
--------------------------------------------------------------------------|


The flags are flying across the Plains
I got a secret picking in my brain
I wanna see you, see you


Guitar I: Riff A

Guitar II:

--------------------------------------------------------------------|
--7777777777777777555555555555555577777777777777775555555555555555--|
--------------------------------------------------------------------|
--------------------------------------------------------------------|
--------------------------------------------------------------------|
--------------------------------------------------------------------|

--------------------------------------------------------------------------|
--121212121212121212121212121212121010101010101010101010101010101012121212|
--------------------------------------------------------------------------|
--------------------------------------------------------------------------|
--------------------------------------------------------------------------|
--------------------------------------------------------------------------|

----------------------------------------------------------
12121212121212121212121210101010101010101010101010101010--
----------------------------------------------------------|
----------------------------------------------------------|
----------------------------------------------------------|
----------------------------------------------------------|

[In the live version Matthew plays Riff A in fast strums here I think.]


Yes, the sign is on my face
I don't know my home
I don't know my place
I just wanna be there, be there.


- Pre-chorus -


Guitar I:

--4~--4~--|
--5~--5~--|
--7~--7~--|
--7~--7~--|
--4~--4~--|
--4~--4~--|


Guitar II:

--4~--4~--|
--5~--5~--|
--7~--7~--|
--7~--7~--|
--4~--4~--|
--4~--4~--|


'Cause I'm the supersoaker, red white and blew 'em all away
With the kisses unclean as the words that you say.


- Chorus II -

Guitar I: Riff A

Guitar II:

-------------------------------------------------------------------------|
-------------------------------------------------------------------------|
--11----9--11-9----------------------------------------------------------|
-----11---------12-11-11--7-11--11-9-7-9---11-11--9\7---11-11-9-9-12-12--|
-----------------------------------------9------------7------------------|
-------------------------------------------------------------------------|

I don't mind sentimental girls at times
Miss don't walk away, walk away.

Guitar I: Riff A

Guitar II:

------------------------------------------------------------------------------|
------------------------------------------------------------------------------|
--11----9--11-9---------------------------------------------------------------|
-----11---------12-11-11--7-11--11-9-7-9---11-11--9\7---11-11-9-9-12-12-7-7~--|
-----------------------------------------9------------7-----------------------|
------------------------------------------------------------------------------|

I don't mind sentimental girls at times
Miss don't walk away, walk away.



- Bridge -

Guitar I:

----------------------------------------|
--5--7-5--5-5h7-5--5---------7b8-8b7-5--|
--6~---------------------6-6-0x---------|
--7~-----------------7------------------|
----------------------------------------|
----------------------------------------|

Guitar II:

-(0~)--------0~---------4~-----------0~--|
--5~---------2~---------5~-----------0~--|
--6~---------1~---------7~-----------1~--|
--7~---------2~---------7~-----------2~--|
-------------0~---------4~-----------2~--|
-----------------------------------------|



Guitar I: /

Guitar II:

-------------------------------------------------------------------|
--7-7-7-7-7-7-7-7-5-5-5-5-5-5-5-5-7-7-7-7-7-7-7-7-5-5-5-5-5-5-5-5--|
--6-6-6-6-6-6-6-6-6-6-6-6-6-6-6-6-6-6-6-6-6-6-6-6-6-6-6-6-6-6-6-6--|
--7-7-7-7-7-7-7-7-7-7-7-7-7-7-7-7-7-7-7-7-7-7-7-7-7-7-7-7-7-7-7-7--|
-------------------------------------------------------------------|
-------------------------------------------------------------------|
  PMPMPMPMPMPMPMPMPMPMPMPMPMPMPMPMPMPMPMPMPMPMPMPMPMPMPMPMPMPMPMPM

---------------------------------------------------------------------------|
--12-12-12-12-12-12-12-12-10-10-10-10-10-10-10-10-12-12-12-12-12-12-12-12--|
--11-11-11-11-11-11-11-11-11-11-11-11-11-11-11-11--------------------------|
--12-12-12-12-12-12-12-12-12-12-12-12-12-12-12-12--------------------------|
---------------------------------------------------------------------------|
---------------------------------------------------------------------------|
  PM PM PM PM PM PM PM PM PM PM PM PM PM PM PM PM -> fade in lightly


I don't mind sentimental girls at times
I just lay it on the line, on the line.


- Solo -

Guitar I: Riff A

Guitar II:

-------------------------------------------------------------------------------------------|
--5x5x5x5x5x5x5x5x5x5x5x5x5x5x5x5x5x5x5x5x5x5x5x5x5x5x5x5x5x5x5x5x5x5x5x5x5x5x5x5x5x5x5x5--|
-------------------------------------------------------------------------------------------|
-------------------------------------------------------------------------------------------|
-------------------------------------------------------------------------------------------|
-------------------------------------------------------------------------------------------|


- Chorus III -

Guitar I: Riff A

Guitar II:

-------------------------------------------------------------------------|
-------------------------------------------------------------------------|
--11----9--11-9----------------------------------------------------------|
-----11---------12-11-11--7-11--11-9-7-9---11-11--9\7---11-11-9-9-12-12--|
-----------------------------------------9------------7------------------|
-------------------------------------------------------------------------|

I don't mind sentimental girls at times
Miss don't walk away, walk away.

Guitar I: Riff A

                                                                        ------|
                                                                        --5~--|
                                                               End on:  --6~--|
                                                                        --7~--|
                                                                        ------|
                                                                        ------|

Guitar II:

------------------------------------------------------------------------------|
------------------------------------------------------------------------------|
--11----9--11-9---------------------------------------------------------------|
-----11---------12-11-11--7-11--11-9-7-9---11-11--9\7---11-11-9-9-12-12-7-7~--|
-----------------------------------------9------------7-----------------------|
------------------------------------------------------------------------------|

I don't mind sentimental girls at times
Miss don't walk away, oohoohoohoo.
Tap to rate this tab
# A B C D E F G H I J K L M N O P Q R S T U V W X Y Z