Song name
# A B C D E F G H I J K L M N O P Q R S T U V W X Y Z

Kings Of Leon - Supersoaker tab

-----------------------------------------------------------------------------
                             Supersoaker - Kings of Leon
-----------------------------------------------------------------------------
Tabbed by: Nick Rohla

THE KINGS ARE BACK!

Tuning:Standard

Intro strum rapidly. Played during the intro/verse/chorus.
e|--0--0--0--0---7--5--7--5--|
B|--7--5--7--5---7--7--7--7--|
G|--6--6--6--6---7--7--7--7--|
D|--7--7--7--7---0--0--0--0--|
A|--0--0--0--0---x--x--x--x--|
E|--x--x--x--x---------------|

I like to play it this way first
e|--2~--0~--2p0-------------------------------------------------------|
B|----2--------3p2-2~----2~--2p0-------2-2-------2-2--0-0--3-3--------|
G|--------------------2----------2h4-------4p2------------------2-2~--|
D|-----------------------------------4---------2----------------------|
A|--------------------------------------------------------------------|
E|--------------------------------------------------------------------|

Verse
e|--0--0--0--0---7--5--7--5--|
B|--7--5--7--5---7--7--7--7--|
G|--6--6--6--6---7--7--7--7--|
D|--7--7--7--7---0--0--0--0--|
A|--0--0--0--0---x--x--x--x--|
E|--x--x--x--x---------------|

e|----------|
B|--5~--5~--|
G|--6~--6~--|
D|--6~--6~--|
A|--4~--4~--|
E|----------|

Chorus

Guitar 1
e|--0--0--0--0---7--5--7--5--|
B|--7--5--7--5---7--7--7--7--|
G|--6--6--6--6---7--7--7--7--|
D|--7--7--7--7---0--0--0--0--|
A|--0--0--0--0---x--x--x--x--|
E|--x--x--x--x---------------|

Guitar 2
e|--------------------------------------------------------------------------|
B|--------------------------------------------------------------------------|
G|-11--6-9---11-9-7---6-6----6---6-4-2-4----6-6---4-2----6-6--4-4--7-7------|
D|--x--x-x---x--x-x---x-x--7-x---x-x-x-x--4-x-x---x-x-2--x-x--x-x--x-x--7-7-|
A|--9--4-7---9--7-5---4-4--x-4---4-2-0-2--x-4-4---2-0-x--4-4--2-2--5-5--x-x-|
E|-------------------------5--------------2-----------0-----------------5-5-|

Verse 2
e|--0--0--0--0---7--5--7--5--|
B|--7--5--7--5---7--7--7--7--|
G|--6--6--6--6---7--7--7--7--|
D|--7--7--7--7---0--0--0--0--|
A|--0--0--0--0---x--x--x--x--|
E|--x--x--x--x---------------|

e|----------|
B|--5~--5~--|
G|--6~--6~--|
D|--6~--6~--|
A|--4~--4~--|
E|----------|

Chorus

Guitar 1
e|--0--0--0--0---7--5--7--5--|
B|--7--5--7--5---7--7--7--7--|
G|--6--6--6--6---7--7--7--7--|
D|--7--7--7--7---0--0--0--0--|
A|--0--0--0--0---x--x--x--x--|
E|--x--x--x--x---------------|

Guitar 2 (or just play the intro above)
e|--------------------------------------------------------------------------|
B|--------------------------------------------------------------------------|
G|-11--6-9---11-9-7---6-6----6---6-4-2-4----6-6---4-2----6-6--4-4--7-7------|
D|--x--x-x---x--x-x---x-x--7-x---x-x-x-x--4-x-x---x-x-2--x-x--x-x--x-x--7-7-|
A|--9--4-7---9--7-5---4-4--x-4---4-2-0-2--x-4-4---2-0-x--4-4--2-2--5-5--x-x-|
E|-------------------------5--------------2-----------0-----------------5-5-|

Bridge

Guitar 1
e|--------------------------------------|
B|--7~--7-5-5----5h7-5~------7b-7br-5~--|
G|--6~--6-6--6-------6~-----------------|
D|--7~--7-7---7------7~-----------------|
A|--0~--0-0----------0~-----------------|
E|--x-----------------------------------|

Guitar 2
e|---------------0~---|
B|--7~--5~---3~--0~---|
G|--6~--6~---4~--1~---|
D|--7~--6~---4~--2~---|
A|--0~--4~---2~--2~---|
E|--x------------0~---|

Palm Mute this time
e|--0--0--0--0---7--5--7--5--|
B|--7--5--7--5---7--7--7--7--|
G|--6--6--6--6---7--7--7--7--|
D|--7--7--7--7---0--0--0--0--|
A|--0--0--0--0---x--x--x--x--|
E|--x--x--x--x---------------|

e|-----|
B|-----|
G|--9--| A thousand times
D|--x--|
A|--7--|
E|-----|

Chorus

Guitar 1
e|--0--0--0--0---7--5--7--5--|
B|--7--5--7--5---7--7--7--7--|
G|--6--6--6--6---7--7--7--7--|
D|--7--7--7--7---0--0--0--0--|
A|--0--0--0--0---x--x--x--x--|
E|--x--x--x--x---------------|

Guitar 2 (or just play the intro above)
e|--------------------------------------------------------------------------|
B|--------------------------------------------------------------------------|
G|-11--6-9---11-9-7---6-6----6---6-4-2-4----6-6---4-2----6-6--4-4--7-7------|
D|--x--x-x---x--x-x---x-x--7-x---x-x-x-x--4-x-x---x-x-2--x-x--x-x--x-x--7-7-|
A|--9--4-7---9--7-5---4-4--x-4---4-2-0-2--x-4-4---2-0-x--4-4--2-2--5-5--x-x-|
E|-------------------------5--------------2-----------0-----------------5-5-|

Cheers guys :)
Tap to rate this tab
 
# A B C D E F G H I J K L M N O P Q R S T U V W X Y Z